Your One-Stop Source For
Music Lyrics
Bass and Guitar Tabs
and More...
Music Lyrics Bass and Guitar Tabs

 

The Tabs Are Below

Learn To Read Tab
Chords Handbook
Corrections & Additions
Get Official Tab
Weezer tabs @ 911Tabs

TITLE: Keep Fishin (based on demo recording)

ARTIST: Weezer

TABBED BY: weezer4life

-standard tuning

 

/=slide up

\=slide down

h=hammer-on

 

INTRO: (00:05)

G|-----------------------------------------------------------------------------------|

D|--------------------------53-53----------------------------------------------------|

A|----------3-3-3-3-----------5--5---------------------------------------------------|

E|--3-3-3-3---------3-3-3-3----------------------------------------------------------|

 

VERSE:

|-----------------------------------------------------------------------------------|

|-----------------------------------------------------------------------------------|

|---------3-3-3-3---------3-3-5-3-0-0-0-0-5-5-5-5-0-0-0-0-5-5-5-5-------------------|

|-3-3-3-3---------3-3-3-3-----------------------------------------------------------|

 

CHORUS:

|-----------------------------------------------------------------------------------|

|-----------/7--------------/7------------------------------------------------------|

|-----3-0-5----5------3-0-5----5----------------------------------------------------|

|-3-0-------------3-0---------------------------------------------------------------|

 

VERSE:

|-----------------------------------------------------------------------------------|

|-----------------------------------------------------------------------------------|

|---------3-3-3-3---------3-3-5-3-0-0-0-0-5-5-5-5-0-0-0-0-5-5-5-5-------------------|

|-3-3-3-3---------3-3-3-3-----------------------------------------------------------|

 

CHORUS:

|-----------------------------------------------------------------------------------|

|-----------/7--------------/7------------------------------------------------------|

|-----3-0-5----5------3-0-5----5----------------------------------------------------|

|-3-0-------------3-0---------------------------------------------------------------|

 

|-----------------------------------------------------------------------------------|

|-----------------------------------------------------------------------------------|

|-33333333----------33333333----------33333333----------3-3-0-0-5-5-5-5-------------|

|----------33333333----------33333333----------33330000-----------------------------|

 

|-----------------------------------------------------------------------------------|

|-----------------------------------------------------------------------------------|

|-----------------------------------------------------------------------------------|

|-777-555-444-222-------------------------------------------------------------------|

 

SOLO/BRIDGE:

|-----------------------------------------------------------------------------------|

|-----------------------------------------------------------------------------------|

|---------3-3-3-3---------3-3-5-3-0-0-0-0-5-5-5-5-0-0-0-0-5-5-5-5-------------------|

|-3-3-3-3---------3-3-3-3-----------------------------------------------------------|

 

CHORUS:

|-----------------------------------------------------------------------------------|

|-----------/7--------------/7------------------------------------------------------|

|-----3-0-5----5------3-0-5----5----------------------------------------------------|

|-3-0-------------3-0---------------------------------------------------------------|

 

|-----------------------------------------------------------------------------------|

|-----------------------------------------------------------------------------------|

|-33333333----------33333333----------33333333----------3-3-0-0-5-5-5-5-------------|

|----------33333333----------33333333----------33333333-----------------------------|

 

|-----------------------------------------------------------------------------------|

|-----------------------------------------------------------------------------------|

|-----------------------------------------------------------------------------------|

|-777-555-444-222-------------------------------------------------------------------|

 

OUTRO:

|-----------------------------------------------------------------------------------|

|---------------------------------------------------------------------53-53---------|

|---------3-3-3-3---------3-3-3-3---------3-3-3-3---------3-3-3-3-------5--5--------|

|-3-3-3-3---------3-3-3-3---------3-3-3-3---------3-3-3-3---------3----------3------|

 

 

Any comments, questions, compliments, criticisms, or damnations email me at:

chico@thekillingtons.net

 

 

Return to my to my Weezer bass tabs page

The Tablature is Copyright its respective owners.

Sign Up For My Newsletter
Subscribe | Unsubscribe

Site Map | Disclaimer | Privacy Policy | Media Kit | Submissions/Corrections

Website © 2000-2014 mattsmusicpage.com. All rights reserved.

Legal & DMCA: Matt's Music Page has been providing lyrics and tabs in a legal way, paying royalties each year to a few organizations. Then, all lyrics and tabs were removed from the site. Now, there's a new owner to the site, which purchased it August 26, 2014, and he is in negotiation to obtain licensing from BMI at the moment. If you have a specific DMCA request -- please do not hesitate to contact me via the contact button on top. I will do my very best to keep this site fully legal.

Get our toolbar!