Your One-Stop Source For
Music Lyrics
Bass and Guitar Tabs
and More...
Music Lyrics Bass and Guitar Tabs

 

The Tabs Are Below

Learn To Read Tab
Chords Handbook
Corrections & Additions
Get Official Tab
Weezer tabs @ 911Tabs

Hash Pipe

 

Jake Shrum(Maximus220@hotmail.com)

 

This is how i play it

 

VERSE

G|---------|

D|---------|

A|-1-1-3-4-|(repeat)

E|---------|

 

CHORUS

G|--------------------------------|----------------------------------------------|-----------------------|

D|-1-1-11-1-1111-1-1-----|----------------------------------------------|-1-1-11-1-1111-1-1-----|

A|--------------------------------|-1-1-3-4-1-1-3-4-1-1-3-4-1-1-3-4-|-----------------------|

E|--------------------------------|----------------------------------------------|-----------------------|

 

G|----------------------------|----------------------------|---------------------------|----------------------------|

D|-4-4-44-4-4444-4-4-|-3-3-33-3-3333-3-3-|-1-1-11-1-1111-1-1-|----------------------------|

A|----------------------------|----------------------------|----------------------------|-4-4-44-4-4444-4-4-|

E|----------------------------|----------------------------|----------------------------|----------------------------|

 

G|-------------------|

D|-------------------|

A|-3-3-33-3-3333-3-3-|

E|-------------------|

 

SECOND CHORUS VARIATION

at the end when you're normally playing the B on the 2 fret, do this

instead...

G|-------------------------------------|

D|-------------------------------------|

A|-2-2-2-2-/14-12h14-12h14-12h14-12h14-|

E|-------------------------------------|

(listen for the correct number of times to hit each note,

this is just a rough guide)

 

BRIDGE (prior to the solo)

G|---------------------------------|

D|---------------------------------|

A|-2-2-2-2-2-2-2-2-2-2-2-2-2-2-2-2-|

E|---------------------------------|

 

THIRD CHORUS VARIATION

very much like on the second chorus, only after the "12h14" things,

you work back down the neck again, something like this i think...

G|------------------------------|

D|------------------------------|

A|-12h14-12h14-12h14-12-9-7-5-3-|

E|------------------------------|

 

that was my best attempt at hash pipe. If you have any feedback or

corrections, email me. I tried my best so it should be relatively

close. thanks.

 

Return to my to my Weezer bass tabs page

The Tablature is Copyright its respective owners.

Sign Up For My Newsletter
Subscribe | Unsubscribe

Site Map | Disclaimer | Privacy Policy | Media Kit | Submissions/Corrections

Website © 2000-2014 mattsmusicpage.com. All rights reserved.

Legal & DMCA: Matt's Music Page has been providing lyrics and tabs in a legal way, paying royalties each year to a few organizations. Then, all lyrics and tabs were removed from the site. Now, there's a new owner to the site, which purchased it August 26, 2014, and he is in negotiation to obtain licensing from BMI at the moment. If you have a specific DMCA request -- please do not hesitate to contact me via the contact button on top. I will do my very best to keep this site fully legal.

Get our toolbar!

 

1939 LYRIC THEATRE New York PHOTO
$5.83
1939 LYRIC THEATRE New York PHOTO picture


Star Spangled Banner or Marines Hymn lyrics signed by WWII Charles W. Lindberg
$10.0
Star Spangled Banner or Marines Hymn lyrics signed by WWII Charles W. Lindberg picture


OLD LARGE HISTORIC PHOTO OF THE LYRIC THEATRE, SYDNEY c1930s, WAR BONDS BOOTH
$7.42
OLD LARGE HISTORIC PHOTO OF THE LYRIC THEATRE, SYDNEY c1930s, WAR BONDS BOOTH picture


SONG OF REVOLUTION CARD SET WITH 13 MOST FAVORED COMMUNIST SONGS LYRICS + NOTES
$24.99
SONG OF REVOLUTION CARD SET WITH 13 MOST FAVORED COMMUNIST SONGS LYRICS + NOTES picture


OLD LARGE HISTORIC PHOTO OF THE LYRIC THEATRE, SYDNEY c1930s, WAR LOANS BOOTH
$7.42
OLD LARGE HISTORIC PHOTO OF THE LYRIC THEATRE, SYDNEY c1930s, WAR LOANS BOOTH picture