Your One-Stop Source For
Music Lyrics
Bass and Guitar Tabs
and More...
Music Lyrics Bass and Guitar Tabs

 

The Tabs Are Below

Learn To Read Tab
Chords Handbook
Corrections & Additions
Get Official Tab
Weezer tabs @ 911Tabs

Weezer - Don't Let Go - Bass Tab

--------------------------------

Jimmy Lin - jimmylin@u.washington.edu

"Please don't hurt me."

-------------------------------------

 

Standard Tuning: GDAE

 

Wait 4 beats then:

G|--------------------------------|

D|------------2444--------5554442-|

A|-55555555555--------------------|

E|----------------33333333--------| (x2) Second time may have different timings...be careful

then:

G|----------------------------------|

D|----------------------------------|

A|-5555555555555555-----------------|

E|-----------------3333333333333333-| (x2)

then:

G|-------------------------------|

D|-------------------------------|

A|---------24542--------00000000-|

E|-22222222-----00000000---------| (x2) Play the 24542 more like 2-4-5-42

then:

G|--------------------------------|

D|------------2444--------5554442-|

A|-55555555555--------------------|

E|----------------33333333--------| (x2)

then:

G|----------------------------------|

D|----------------------------------|

A|-5555555555555555-----------------|

E|-----------------3333333333333333-| (x2)

then:

G|-------------------------------|

D|-------------------------------|

A|---------24542--------00000000-|

E|-22222222-----00000000---------| (x2)

then this really hard stuff (mostly because I can't hear the bass that well):

G|---------------------------------------------------------|

D|---------------------------------------------------------|

A|-----------------2-5-4-2---------10-9-7-53333333333333333|

E|-2222222222222222-------33333333-------------------------| Play the 10-9-7-5 fast...i think you can omit the 5 also.

then:

G|--------------------------------|

D|------------2444--------5554442-|

A|-55555555555--------------------|

E|----------------33333333--------| (x2)

then:

G|----------------------------------|

D|----------------------------------|

A|-5555555555555555-----------------|

E|-----------------3333333333333333-| (x2)

then:

G|-------------------------------|

D|-------------------------------|

A|---------24542--------00000000-|

E|-22222222-----00000000---------| (x2)

hard stuff again:

G|---------------------------------------------------------|

D|---------------------------------------------------------|

A|-----------------2-5-4-2---------10-9-7-53333333333333333|

E|-2222222222222222-------33333333-------------------------|

then the end

G|--------------------------------|

D|------------2444--------5554442-|

A|-55555555555--------------------|

E|----------------33333333--------| (x2)

and finally

G|-----------------------------------|

D|-----------------------------------|

A|-5555555555555555-----------------5|

E|-----------------3333333333333333--|

<finis>

 

*note*

sometimes I think I can hear them playing:

G|----------------------------------|

D|---------4--4---------------------|

A|-55555555-55-5555-----------------|

E|-----------------3333333333333333-|

but maybe it's just me having delusions after listening to Don't Let Go like a bazillion times, so use your own discretion! Anyways, enjoy! Maybe I'll tab these other songs someday...

--------------------------

Many thanks to Jimmy's Mom

 

Return to my to my Weezer bass tabs page

The Tablature is Copyright its respective owners.

Sign Up For My Newsletter
Subscribe | Unsubscribe

Site Map | Disclaimer | Privacy Policy | Media Kit | Submissions/Corrections

Website © 2000-2014 mattsmusicpage.com. All rights reserved.

Legal & DMCA: Matt's Music Page has been providing lyrics and tabs in a legal way, paying royalties each year to a few organizations. Then, all lyrics and tabs were removed from the site. Now, there's a new owner to the site, which purchased it August 26, 2014, and he is in negotiation to obtain licensing from BMI at the moment. If you have a specific DMCA request -- please do not hesitate to contact me via the contact button on top. I will do my very best to keep this site fully legal.

Get our toolbar!