Your One-Stop Source For
Music Lyrics
Bass and Guitar Tabs
and More...
Music Lyrics Bass and Guitar Tabs

 

The Tabs Are Below

Learn To Read Tab
Chords Handbook
Corrections & Additions
Get Official Tab
Weezer tabs @ 911Tabs

Weezer

Across the Sea

tabbed by Jason The Great (dawgawd@hotmail.com)

 

okay, here it is. I believe this to be mostly correct and complete.

enjoy.

 

/=slide up

\=slide down

h=hamer on

p=pull off

 

FIRST VERSE

(listen for where the bass enters)

Gb|---------------------------------------------------------------------|

Db|---------------------------------------------------------------------|

Ab|-----2-2-3/7-7-5-5-----2-2-3-3-5-5-----2-2-3/7-7-5-5-----2-2-3/7-7-5-|

Eb|-3-3---------------3-3-------------3-3---------------3-3-------------|

 

CHORUS (rhythm might be a tad bit off)

Gb|----------------------------------------|

Db|----------------------------------------|

Ab|---------2-2-2-2-/7-7-7-7-5-5-5-5-------|

Eb|-3-3-3-3--------------------------0-0-0-|

 

Gb|------------------------------------------|

Db|------------------------------------------|

Ab|---------2-2-2-2-/7-7-7-7-5-10-10-8-8-7-7-|

Eb|-3-3-3-3----------------------------------|

 

Gb|---------------------------------------------------------|

Db|---------------------------------------------------------|

Ab|---8-8-7-7-5-5---7-7-5-5-3-3---3-3-5-5-7-7---3-3-5-5-7-7-|

Eb|-8-------------7-------------5-------------5-------------|

 

Gb|----------------------------------------------------------|

Db|----------------------------------------------------------|

Ab|---------------5-5-5-5-3-3-5-5-5-/10-10-10-10-10-10-10-10-|

Eb|-3-3-2-2-2-0-0--------------------------------------------|

 

INTERLUDE

Gb|-----------------------------------------------------------------|

Db|-----------------------------------------------------------------|

Ab|-7-7-7-7-5-5-5-5-3-3-3-3-2-2-2-2-0-0-0-0-0-0-0-0-0-0-0-0-5-5-5-5-|

Eb|-----------------------------------------------------------------|

 

SECOND VERSE

Gb|-----------------------------------------------------------------|

Db|-----------------------------------------------------------------|

Ab|-----2-2-7-7-5-5-----2-2-3-3-5-5-----2-2-7-7-5-5-----2-2-3-3-5-5-|

Eb|-3-3-------------3-3-------------3-3-------------3-3-------------|

 

Gb|----------------------------------------|

Db|-*--------------------------------------|

Ab|-*10-10-10/-2-2-3-3-5-5-----2-2-3-3-5-5-|

Eb|------------------------3-3-------------|

*pick these notes really quickly

 

Gb|-------------------------------------------------|

Db|-------------------------------------------------|

Ab|-10-10-10-10-14-14-14-14-15-15-15-15-17-17-17-17-|x2

Eb|-------------------------------------------------|

(the first time through the above, the notes are picked differently)

 

CHORUS (just like the first)

 

GUITAR SOLO

Gb|---------------------------------------------------------------------|

Db|---------------------------------------------------------------------|

Ab|-2-2-0-0-0-----------7-7-8-8-8-/10-10-10\--------/10-10-10\----------|

Eb|-----------3-3-1-1-1--------------------/10-10-10\--------/10-10-10\-|

 

Gb|-----------------------------------------------------------|

Db|-----------------------------------------------------------|

Ab|-3-3-8h10-8h10-8h10-8-7-5---------7-7-7\-----/7-7-7\-------|

Eb|--------------------------8-7-5-3------/7-7-7\-----/7-7-7\-|

 

Gb|-----------------------------------------------------|

Db|-----------------------------------------------------|

Ab|---------5-5-7--7-5-3-2-3-2--4-4-4-------4-4-4-------|

Eb|-5-5-5-5---------------------------4-4-4-------4-4-4-|

 

Gb|-----------------------------------|

Db|-----------------------------------|

Ab|---------------------------------2-|

Eb|-2-2-2-2-2-2-2-2-2-2-2-2-2-2-2-2---|

 

BRIDGE

Gb|------------------------------------------|

Db|------------------------------------------|

Ab|-7--6--4--2--0--------7--6--4--2--0-------|

Eb|----------------4--2-----------------4--2-|

 

Gb|-----------------------------------------------------------------|

Db|-----------------------------------------------------------------|

Ab|-7-7-7-7-6-6-6-6-4-4-4-4-2-2-2-2-0-0-0-0-------------------------|

Eb|-----------------------------------------4-4-4-4-2-2-2-2-2-2-2-2-|

 

Gb|-----------------------------------------------------------------|

Db|-----------------------------------------------------------------|

Ab|-7-7-7-7-6-6-6-6-4-4-4-4-2-2-2-2-0-0-0-0-------------------------|

Eb|-----------------------------------------4-4-4-4-2-2-2-2-2-2-2-2-|

 

LAST VERSE

Gb|-----------------------------------------------------------------|

Db|-----------------------------------------------------------------|

Ab|---------2-2-2-2-3-3-3-3-5-5-5-5---------2-2-2-2-3-3-3-3-5-5-5-5-|

Eb|-3-3-3-3-------------------------3-3-3-3-------------------------|

 

Gb|-----------------------------------------------------------------|

Db|-----------------------------------------------------------------|

Ab|---------2-2-2-2-7-7-7-7-5-5-5-5---------2-2-2-2-3-3-3-3-5-5-5-5-|

Eb|-3-3-3-3-------------------------3-3-3-3-------------------------|

 

Gb|-------------------------------------------------|

Db|-------------------------------------------------|

Ab|-10-10-10-10-14-14-14-14-15-15-15-15-17-17-17-17-|

Eb|-------------------------------------------------|

 

Gb|-------------------------------------------------|

Db|-------------------------------------------------|

Ab|-20-20-20-20-14-14-14-14-15-15-15-15-17-17-17-17-|

Eb|-------------------------------------------------|

 

LAST CHORUS

Gb|-------------------------|-------------|

Db|-------------------------|-------------|

Ab|---------2-2-2-2-0-0-0-0-|-7-7-7-7-5-5-|

Eb|-3-3-3-3-----------------|-------------|

 

Gb|---------------------------------|

Db|---------------------------------|

Ab|---------2-2-2-2-0-0-0-0-5-5-5-5-|

Eb|-3-3-3-3-------------------------|

 

Gb|---------------------------------------------------------|

Db|---------------------------------------------------------|

Ab|---8-8-7-7-5-5---7-7-5-5-3-3---3-3-5-5-7-7---3-3-5-5-7-7-|

Eb|-8-------------7-------------5-------------5-------------|

 

Gb|---------------------------------------------------------|

Db|---------------------------------------------------------|

Ab|-------------------------5-5-5-5-3-3-3-3-5-5-5-5---------|

Eb|-3-3-3-3-2-2-2-2-0-0-0-0-------------------------3-3-3-3-|

 

Gb|------------------------------------------|

Db|------------------------------------------|

Ab|-------------------------5-5-5-5--3--5----|

Eb|-3-3-3-3-2-2-2-2-0-0-0-0----------------3-|

 

Return to my to my Weezer bass tabs page

The Tablature is Copyright its respective owners.

Sign Up For My Newsletter
Subscribe | Unsubscribe

Site Map | Disclaimer | Privacy Policy | Media Kit | Submissions/Corrections

Website © 2000-2014 mattsmusicpage.com. All rights reserved.

Legal & DMCA: Matt's Music Page has been providing lyrics and tabs in a legal way, paying royalties each year to a few organizations. Then, all lyrics and tabs were removed from the site. Now, there's a new owner to the site, which purchased it August 26, 2014, and he is in negotiation to obtain licensing from BMI at the moment. If you have a specific DMCA request -- please do not hesitate to contact me via the contact button on top. I will do my very best to keep this site fully legal.

Get our toolbar!