Your One-Stop Source For
Music Lyrics
Bass and Guitar Tabs
and More...
Music Lyrics Bass and Guitar Tabs

 

The Tabs Are Below

Learn To Read Tab
Chords Handbook
Corrections & Additions
Get Official Tab
Wallflowers tabs @ 911Tabs

 

Artist :The WallFlowers

Song title : Bleeders

Album : Bringing Down the Horse

Submitted by : Réjean Roy (rjean.roy@sympatico.ca)

 

1st verse 3x

G---||----------------------------------------------------||

D---||*--------------4--------------4--6--4--------------*||

A---||*--4-----4--6-----6--7--6--7-----------------------*||

E---||------7--------------------------------5--5--7--7---||

 

 

 

G---------------------------------------------------------------|

D------------------------------4--6--4--------------------------|

A---4-----4--6--4--6--7--6--7-----------------------------------|

E------7--------------------------------5--5--5--5--7--7--7--7--|

 

 

 

G---------------------------------------------------|

D------------------------------4--------------------|

A---4-----------4--6--7--6--7-----7--4--------------|

E------7--5--4--------------------------5--5--7--7--|

 

 

 

G---------------------------------------------------||

D---------------4--------------4--6--4--------------||

A---4-----4--6-----6--7--6--7-----------------------||

E------7--------------------------------5--5--7--7--||

 

 

1st Chorus

G-----------------------------------------------------------------------

D------------------------6--6--6--4-------------------------------------

A---4--4--4--4--4-----7--------------7--4--4--4--4--4-----7-------------

E------------------7-----------------------------------7-----4--5--4----

 

 

 

G---------------------------------------------------------------6--4----

D---------------------------------------4--4--4--6--7--7--7--6----------

A---------4--4--4--4--4-----7--7--7--6----------------------------------

E---5--7-----------------7----------------------------------------------

 

 

 

G---4-------------------------------------------------------------------

D------7--6--6--4--7----------------------------------------------------

A-----------------------------------------------------------------------

E-----------------------------------------------------------------------

 

2nd verse 2x

G---||----------------------------------------------------||

D---||*--------------4--------------4--6--4--------------*||

A---||*--4-----4--6-----6--7--6--7-----------------------*||

E---||------7--------------------------------5--5--7--7---||

 

 

G---------------------------------------------------------------|

D------------------------------4--6--4--------------------------|

A---4-----4--6--4--6--7--6--7-----------------------------------|

E------7--------------------------------5--5--5--5--7--7--7--7--|

 

 

 

G---------------------------------------------------|

D------------------------------4--------------------|

A---4-----------4--6--7--6--7-----7--4--------------|

E------7--5--4--------------------------5--5--7--7--|

 

 

 

G---------------------------------------------------||

D---------------4--------------4--6--4--------------||

A---4-----4--6-----6--7--6--7-----------------------||

E------7--------------------------------5--5--7--7--||

 

 

2nd Chorus

G-----------------------------------------------------------------------

D------------------------6--6--6--4-------------------------------------

A---4--4--4--4--4-----7--------------7--4--4--4--4--4-----7-------------

E------------------7-----------------------------------7-----4--5--4----

 

 

 

G---------------------------------------------------------------6--4----

D---------------------------------------4--4--4--6--7--7--7--6----------

A---------4--4--4--4--4-----7--7--7--6----------------------------------

E---5--7-----------------7----------------------------------------------

 

 

 

G---4--------------4----------------------------------------------------

D------7--6--6--4-------------------------------------------------------

A-----------------------------------------------------------------------

E-----------------------------------------------------------------------

 

 

3rd Verse 4x

G---||----------------------------------------------------||

D---||*-----------------------------4--------------------*||

A---||*--4-----------4--6--7--6--7-----7--4--------------*||

E---||------7--5--4--------------------------5--5--7--7---||

 

 

3rd Chorus

G-----------------------------------------------------------------------

D------------------------6--6--6--4-------------------------------------

A---4--4--4--4--4-----7--------------7--4--4--4--4--4-----7-------------

E------------------7-----------------------------------7-----4--5--4----

 

 

G-----------------------------------------------------------------------

D---------------------------------------4--4--4--6--7--7--7--6----------

A---------4--4--4--4--4-----7--7--7--6--------------------------4--4----

E---5--7-----------------7----------------------------------------------

 

 

G-----------------------------------------------------------------------

D------------------6--6--6--4-------------------------------------------

A---4--4--4-----7--------------7--4--4--4--4--4-----7-------------------

E------------7-----------------------------------7-----4--5--4--5--7----

 

G---------------------------------------------------------6--4--4-------

D---------------------------------4--4--4--6--7--7--7--6-----------7----

A---4--4--4--4--4-----7--7--7--6----------------------------------------

E------------------7----------------------------------------------------

 

 

End

G------------4-----------||

D---6--6--4-----7--6-----||

A------------------------||

E---------------------0--||

 

 

 

 

========================================================================

== TABLATURE EXPLANATION ==

========================================================================

 

---------- ---------- ----t---

----5h8--- Hammeron ----(8)--- Ghost ----6--- Tap

---------- ---------- Note --------

----5p8--- Pulloff ---------- --------

 

---------- ---------- -----p--

----5/8--- Slide Up -----x---- Dead -----7-- Pop

---------- ---------- Note --s-----

----5\8--- Slide Down ---------- --5----- Slap

 

---------- ||------|| Repeat --------

----5~~~-- Vibrato ||*----*|| ---5^--- Bend

---------- ||*----*|| --------

---------- ||------|| --------

 

---------- ---------- --------

-4:------- Time ---------- --------

-4:------- Signature ---------- --------

---------- ---------- --------

 

Rhythm:

w = whole note W = dotted whole

h = half note H = dotted half

q = quarter note Q = dotted quarter

e = eighth note E = dotted eighth

s = sixteenth note S = dotted sixteenth

t = 32nd note T = dotted 32nd

x = 64th note X = dotted 64th

^ = triplet

 

Return to my to my Wallflowers bass tabs page

The Tablature is Copyright its respective owners.

Sign Up For My Newsletter
Subscribe | Unsubscribe

Site Map | Disclaimer | Privacy Policy | Media Kit | Submissions/Corrections

Website © 2000-2014 mattsmusicpage.com. All rights reserved.

Legal & DMCA: Matt's Music Page has been providing lyrics and tabs in a legal way, paying royalties each year to a few organizations. Then, all lyrics and tabs were removed from the site. Now, there's a new owner to the site, which purchased it August 26, 2014, and he is in negotiation to obtain licensing from BMI at the moment. If you have a specific DMCA request -- please do not hesitate to contact me via the contact button on top. I will do my very best to keep this site fully legal.

Get our toolbar!

 

Starbucks You Are Here Coffee Mug/Cup KENTUCKY - Horses, Banjo, Blue, White
$19.99
Starbucks You Are Here Coffee Mug/Cup KENTUCKY - Horses, Banjo, Blue, White picture


KNOWLES ROCKWELL HERITAGE "THE BANJO PLAYER" FIRST EDITION 1989 PLATE COA
$5.99
KNOWLES ROCKWELL HERITAGE


Vintage Postcard 1981 Disney World Banjo Kings Main Street USA 1981 Postmark
$4.99
 Vintage Postcard 1981 Disney World Banjo Kings Main Street USA 1981 Postmark picture


Banjo Barometer With Thermometer Hygrometer 490mm
$84.76
Banjo Barometer With Thermometer Hygrometer 490mm picture


ANTIQUE JAPANESE NIPPON FIGURINE SET OF 3 WOMEN GEISHA PLAYING DRUM BANJO FAN
$24.0
ANTIQUE JAPANESE NIPPON FIGURINE SET OF 3 WOMEN GEISHA PLAYING DRUM BANJO FAN picture