Your One-Stop Source For
Music Lyrics
Bass and Guitar Tabs
and More...
Music Lyrics Bass and Guitar Tabs

 

The Tabs Are Below

Learn To Read Tab
Chords Handbook
Corrections & Additions
Get Official Tab
Velvet Revolver tabs @ 911Tabs

SET ME FREE - Velvet Revolver

-----------------------------------------------------------------------------

Tabbed by: Jack Burton

Email: jackasstv@hotmail.com

 

Tuning:Standard

 

 

Intro Riff X6 (w/DIST)

GTR1

e|-----------------------11\-10------8--------8----8------9---------------|

B|--------------------------------------------------------------8---9--10-|

G|-----------------------8\---7------5--------5----5------6---------------|

D|--------------------------------------------------------------5---6---7-|

A|-*(-x---x-x-x--x--)------------------------------------------------------|

E|--(-x---x-x-x--x--)-----------------------------------------------------|

*only play on first time

 

GTR 2 plays (w/DIST)

e|------------------------------------------------------------------------|

B|------------------------------------------------------------------------|

G|---2--------------------------------------------------------------------|

D|---2----let ring--------------------------------------------------------|

A|---2--------------------------------------------------------------------|

E|---0--------------------------------------------------------------------|

 

 

 

 

Main Riff X4 (w/DIST)

e|-------------------------------------------------------------------------|

B|-------------------------------------------------------------------------|

G|-------------------------------------------------------------------------|

D|-----------------------------------------------BU-BD---------------------|

A|---0---0---3--3---4--4---------------------5(6)-----(5)----3---0---------|

E|------------------------3--3---4--4--0--0--------------------------------|

 

BREAK - with main riff played by bass

Then

Intro (GTR 1) played over main Riff (GTR 2)X5

 

Then Chorus riff (little DIST)

e|-------------------------------------------------------------------------|

B|-------------------------------------------------------------------------|

G|-7--7-7-7-7-7-7-7---------------------5--5-5-5-5-5-5-5-------------------|

D|-7--7-7-7-7-7-7-7---8--8-8-8-8-8-8-8--5--5-5-5-5-5-5-5--5--5-5-5-5-5-5-5-|

A|-5--5-5-5-5-5-5-5---8--8-8-8-8-8-8-8--3--3-3-3-3-3-3-3--5--5-5-5-5-5-5-5-|

E|--------------------6--6-6-6-6-6-6-6--------------------3--3-3-3-3-3-3-3-|

 

e|-------------------------------------------------------------------------|

B|-------------------------------------------------------------------------|

G|--7--7-7-7-7-7-7-7---------------------10--10-10-10-10-10-10-10-10-10-10-|

D|--7--7-7-7-7-7-7-7---8--8-8-8-8-8-8-8--10--10-10-10-10-10-10-10-10-10-10-|

A|--5--5-5-5-5-5-5-5---8--8-8-8-8-8-8-8---8---8---8---8---8---8---8---8--8-|

E|---------------------6--6-6-6-6-6-6-6------------------------------------|

 

e|-------------------------------------------------------------------------|

B|-------------------------------------------------------------------------|

G|-------------------------------------------------------------------------|

D|---9--9--9---------------------------------------------------------------|

A|---7--7--7--0------------------------------------------------------------|

E|-------------------------------------------------------------------------|

 

Then Main Riff X2

Then Break with Main Riff played By Bass.

Then Intro(GTR 1) played over main riff(GTR 2)X5

Then Chorus X2

 

Then Bridge (w/DIST)

e|--------------------------------------------------------------------------|

B|----6-------------------5-----------------------8-------8--------------5--|

G|----5------------------ 4-----------------------7-------7--------------4--|

D|----3-------------------2-----------------------5-------5--------------4--|

A|----3-------------------2-----------------------5-------5--------------2--|

E|--------------------------------------------------------------------------|

 

BU ^^^^^^^

e|------------------------------8---(10)--5--------------------------------|

B|-----6-----------------5------------------8p5---BU-BD--------------------|

G|-----5-----------------4-----------------------7(9)-(7)-p5--7-5----------|

D|-----5-----------------2----------------------------------------7p5------|

A|-----3-----------------2-------------------------------------------7p5---|

E|-------------------------------------------------------------------------|

 

 

e|-------------------------------------------------------------------------|

B|-------------------------------------6---------------------------5---8---|

G|-------------------------------------5---------------------------4---7---|

D|---5---------------------------------5---------------------------2---5---|

A|------7p5----------------------------3---------------------------2---5--|

E|--------------8----5\----------------------------------------------------|

 

 

e|-------------------------------------------------------------------------|

B|----8-8-8-8-8-8----7-------7-7-7-7-7-7-----------6-------5-----BU--BD----|

G|----7-7-7-7-7-7----7-------7-7-7-7-7-7-----------5-------4----2--(4)-(2)-|

D|----5-5-5-5-5-5----4-------4-4-4-4-4-4-----------5-------2---------------|

A|-------------------------------------------------3-------2---------------|

E|-------------------------------------------------------------------------|

 

e|------BU---BD----------------8-------------------------------------------|

B|---7---(8)-----(7)-------------------------------------------------------|

G|---7---(9)-----(7)-----------5-------------------------------------------|

D|-------------------------------------------------------------------------|

A|-------------------------------------------------------------------------|

E|-------------------------------------------------------------------------|

 

Then intro Riff X4

 

 

Solo

 

e|----8-----8----8------8---8-----x----8---------------------8---8---------|

B|-----------------------------------------8//10--10--10-10----------------|

G|----5-----5----5------5---5-----x----5---------------------5---5----0----|

D|-----------------------------------------5//-7---7---7--7-----------------|

A|-------------------------------------------------------------------------|

E|-------------------------------------------------------------------------|

 

 

e|--8--8--8------8--8--8---------------------BU---------------BU----------|

B|----------------------------10----10----7(8)--5-7--5-7---7(8)--5-7---5--|

G|--5--5--5---0--5--5--5------------------7(9)--5-7--5-7---7(9)--5-7---5 -|

D|----------------------------7------7--------------7----------------7----|

A|------------------------------------------------------------------------|

E|------------------------------------------------------------------------|

 

 

e|-----------------------------------------------11--12-11-12--------11---|

B|--------8------------7-----------6--------10----------------13-10--------|

G|----10-(12)-------9-(11)------8-(10)----7-(9)--------------------12-----|

D|-------BU-----------BU---------BU---------BU----------------------------|

A|------------------------------------------------------------------------|

E|------------------------------------------------------------------------|

 

 

e|---12-11-12----------------------------BU---BD-------------------BU-----|

B|-----------13-10------10^^^^^---13---15-(16)-(15)13---15---13---15(17)--|

G|----------------12----------------------------------14-------14---------|

D|------------------------------------------------------------------------|

A|------------------------------------------------------------------------|

E|------------------------------------------------------------------------|

 

PB 15----------- BU ^^^^^ BU

e|-------------------15----BU------12--17--12--15---15-(17)----18--(20)---|

B|---(17)--(17)--(17)----15-(17)------------------------------------------|

G|------------------------------------------------------------------------|

D|------------------------------------------------------------------------|

A|------------------------------------------------------------------------|

E|------------------------------------------------------------------------|

 

BU PB 20-----------} BU

e|-----20---(22)------------(22)----(22)-------22--(24)--------------------|

B|-------------------------------------------------------------------------|

G|-------------------------------------------------------------------------|

D|-------------------------------------------------------------------------|

A|-------------------------------------------------------------------------|

E|-------------------------------------------------------------------------|

 

Then Chorus X5

 

Outro X4

e|-------------------------------------------------------------------------|

B|-------------------------------------------------------------------------|

G|--------------------------------3-3-3------------------------------------|

D|--3-3-3-----3-3-3-----3-3-3-----3-3-3------------------------------------|

A|--3-3-3-----3-3-3-----3-3-3-----1-1-1------------------------------------|

E|--1-1-0h1---1-1-0h1---1-1-0h1--------------------------------------------|

 

On last time play

e|-------------------------------------------------------------------------|

B|-------------------------------------------------------------------------|

G|---2---------------------------------------------------------------------|

D|---2---let ring----------------------------------------------------------|

A|---0---------------------------------------------------------------------|

E|-------------------------------------------------------------------------|

 

 

Thats it! its 100% correct. Any Comments email me at jackasstv@hotmail.com

VELVET REVOLVER RULE................Enjoy

 

 

 

| PB -pre bend

| BD bend down

| BU bend up

| / slide up

| \ slide down

| h hammer-on

| p pull-off

| ^^ vibrato

| + harmonic

| x Mute note

 

 

Return to my Velvet Revolver tabs page

The Tablature is Copyright its respective owners.

Sign Up For My Newsletter
Subscribe | Unsubscribe

Site Map | Disclaimer | Privacy Policy | Media Kit | Submissions/Corrections

Website © 2000-2014 mattsmusicpage.com. All rights reserved.

Get our toolbar!