Your One-Stop Source For
Music Lyrics
Bass and Guitar Tabs
and More...
Music Lyrics Bass and Guitar Tabs

 

The Tabs Are Below

Learn To Read Tab
Chords Handbook
Corrections & Additions
Get Official Tab
Velvet Revolver tabs @ 911Tabs

Big machine Velvet Revolver

 

Awesome song awesome album

 

G||------------------------|------------------------|------------------------|

D||------------------------|------------------------|------------------------|

A||------------------------|------------------------|------------------------|

E||--0--0----0--0--0----0--|--0--0----0--0--0----0--|--0--0----0--0--0----0--|

 

 

 

------------------------|---------------------|----------------------|

------------------------|---------------------|----------------------|

------------------------|--7--6--5------------|----------------------|

--0--0----0--0--0----0--|---------------------|--5--4--3--------5----|

 

 

 

------------------------|------------------------|---------------------|

------------------------|------------------------|---------------------|

------------------------|------------------------|--7--6--5------------|

--0--0----0--0--0----0--|--0--0----0--0--0----0--|---------------------|

 

 

 

----------------------|------------------------|------------------------|

----------------------|------------------------|------------------------|

----------------------|------------------------|------------------------|

--5--4--3--------5----|--0--0----0--0--0----0--|--0--0----0--0--0----0--|

 

 

 

------------------------|------------------------|------------------------|

------------------------|------------------------|------------------------|

------------------------|------------------------|------------------------|

--0--0----0--0--0----0--|--0--0----0--0--0----0--|--0--0----0--0--0----0--|

 

 

 

------------------------|------------------------|------------------------|

------------------------|------------------------|------------------------|

------------------------|------------------------|------------------------|

--0--0----0--0--0----0--|--0--0----0--0--0----0--|--0--0----0--0--0----0--|

 

 

 

--------------------------|--------------------------|------------------------|

--------------------------|--------------------------|------------------------|

--------------------------|--------------------------|------------------------|

--0--0--3--0--5--0--3--0--|--0--0--3--0--5--0--3--0--|--0--0----0--0--0----0--|

 

 

 

------------------------|--------------------------|--------------------------|

------------------------|--------------------------|--------------------------|

------------------------|--------------------------|--------------------------|

--0--0----0--0--0----0--|--0--0--3--0--5--0--3--0--|--0--0--3--0--5--0--3--0--|

 

 

 

--------------------------|-------------------------|------------------------|

--------------------------|-------------------------|------------------------|

--------------------------|-------------------------|------------------------|

--3--3--3--3--3--3--3--3--|--3--3--3--3--3--5--5----|--0--0----0--0--0----0--|

 

 

 

------------------------|---------------------|----------------------|

------------------------|---------------------|----------------------|

------------------------|--7--6--5------------|----------------------|

--0--0----0--0--0----0--|---------------------|--5--4--3--------5----|

 

 

 

------------------------|------------------------|---------------------|

------------------------|------------------------|---------------------|

------------------------|------------------------|--7--6--5------------|

--0--0----0--0--0----0--|--0--0----0--0--0----0--|---------------------|

 

 

 

----------------------|------------------------|------------------------|

----------------------|------------------------|------------------------|

----------------------|------------------------|------------------------|

--5--4--3--------5----|--0--0----0--0--0----0--|--0--0----0--0--0----0--|

 

 

 

---------------------|----------------------|------------------------|

---------------------|----------------------|------------------------|

--7--6--5------------|----------------------|------------------------|

---------------------|--5--4--3--------5----|--0--0----0--0--0----0--|

 

 

 

------------------------|------------------------|------------------------|

------------------------|------------------------|------------------------|

------------------------|------------------------|------------------------|

--0--0----0--0--0----0--|--0--0----0--0--0----0--|--0--0----0--0--0----0--|

 

 

 

------------------------|------------------------|------------------------|

------------------------|------------------------|------------------------|

------------------------|------------------------|------------------------|

--0--0----0--0--0----0--|--0--0----0--0--0----0--|--0--0----0--0--0----0--|

 

 

 

------------------------|------------------------|------------------------|

------------------------|------------------------|------------------------|

------------------------|------------------------|------------------------|

--0--0----0--0--0----0--|--0--0----0--0--0----0--|--0--0----0--0--0----0--|

 

 

 

--------------------------|--------------------------|------------------------|

--------------------------|--------------------------|------------------------|

--------------------------|--------------------------|------------------------|

--0--0--3--0--5--0--3--0--|--0--0--3--0--5--0--3--0--|--0--0----0--0--0----0--|

 

 

 

------------------------|--------------------------|--------------------------|

------------------------|--------------------------|--------------------------|

------------------------|--------------------------|--------------------------|

--0--0----0--0--0----0--|--0--0--3--0--5--0--3--0--|--0--0--3--0--5--0--3--0--|

 

 

 

--------------------------|-------------------------|------------------------|

--------------------------|-------------------------|------------------------|

--------------------------|-------------------------|------------------------|

--3--3--3--3--3--3--3--3--|--3--3--3--3--3--5--5----|--0--0----0--0--0----0--|

 

 

 

------------------------|---------------------|----------------------|

------------------------|---------------------|----------------------|

------------------------|--7--6--5------------|----------------------|

--0--0----0--0--0----0--|---------------------|--5--4--3--------5----|

 

 

 

------------------------|------------------------|---------------------|

------------------------|------------------------|---------------------|

------------------------|------------------------|--7--6--5------------|

--0--0----0--0--0----0--|--0--0----0--0--0----0--|---------------------|

 

 

 

----------------------|------------------------|------------------------|

----------------------|------------------------|------------------------|

----------------------|------------------------|------------------------|

--5--4--3--------5----|--0--0----0--0--0----0--|--0--0----0--0--0----0--|

 

 

 

---------------------|----------------------|------------------------|

---------------------|----------------------|------------------------|

--7--6--5------------|----------------------|------------------------|

---------------------|--5--4--3--------5----|--0--0----0--0--0----0--|

 

 

 

------------------------|--------------------------|--------------------------|

------------------------|--------------------------|--------------------------|

------------------------|--3--3--3--3--3--3--3--3--|--------------------------|

--0--0----0--0--0----0--|--------------------------|--0--0--0--0--0--0--0--0--|

 

 

 

--------------------------|--------------------------|

--------------------------|--------------------------|

--5--5--5--5--5--5--5--5--|--------------------------|

--------------------------|--0--0--0--0--0--0--0--0--|

 

 

 

--------------------------|--------------------------|

--------------------------|--------------------------|

--3--3--3--3--3--3--3--3--|--------------------------|

--------------------------|--3--3--3--3--3--3--3--3--|

 

 

 

--------------------------|--------------------------|

--------------------------|--------------------------|

--------------------------|-----------------7--7--7--|

--5--5--5--5--5--5--5--5--|--5--5--5--5--5-----------|

 

 

 

--------------------------|--------------------------|

--------------------------|--------------------------|

--3--3--3--3--3--5--5--5--|--------------------------|

--------------------------|--0--0--0--0--0--3--3--3--|

 

 

 

--------------------------|--------------------------|

--------------------------|--------------------------|

--5--5--5--5--5--5--5--5--|--7--7--7--7--7/-2--2--2--|

--------------------------|--------------------------|

 

 

 

--------------------------|--------------------------|

--------------------------|--------------------------|

--3--3--3--3--3--3--------|--------------------------|

--------------------2--2--|--3--3--3--3--3--3--3--3--|

 

 

 

--------------------------|-------------------------|------------------------|

--------------------------|-------------------------|------------------------|

--------------------------|-----------------2-------|------------------------|

--5--5--5--5--5--5--5--5--|--5--5--5--5--5-----3----|--0--0----0--0--0----0--|

 

 

 

------------------------|------------------------|------------------------|

------------------------|------------------------|------------------------|

------------------------|------------------------|------------------------|

--0--0----0--0--0----0--|--0--0----0--0--0----0--|--0--0----0--0--0----0--|

 

 

 

------------------------|------------------------|------------------------|

------------------------|------------------------|------------------------|

------------------------|------------------------|------------------------|

--0--0----0--0--0----0--|--0--0----0--0--0----0--|--0--0----0--0--0----0--|

 

 

 

------------------------|------------------------|------------------------|

------------------------|------------------------|------------------------|

------------------------|------------------------|------------------------|

--0--0----0--0--0----0--|--0--0----0--0--0----0--|--0--0----0--0--0----0--|

 

 

 

------------------------|------------------------|--------------------------|

------------------------|------------------------|--------------------------|

------------------------|------------------------|--------------------------|

--0--0----0--0--0----0--|--0--0----0--0--0----0--|--0--0--3--0--5--0--3--0--|

 

 

 

--------------------------|------------------------|------------------------|

--------------------------|------------------------|------------------------|

--------------------------|------------------------|------------------------|

--0--0--3--0--5--0--3--0--|--0--0----0--0--0----0--|--0--0----0--0--0----0--|

 

 

 

--------------------------|--------------------------|

--------------------------|--------------------------|

--------------------------|--------------------------|

--0--0--3--0--5--0--3--0--|--0--0--3--0--5--0--3--0--|

 

 

 

--------------------------|-------------------------|------------------------|

--------------------------|-------------------------|------------------------|

--------------------------|-------------------------|------------------------|

--3--3--3--3--3--3--3--3--|--3--3--3--3--3--5--5----|--0--0----0--0--0----0--|

 

 

 

------------------------|---------------------|----------------------|

------------------------|---------------------|----------------------|

------------------------|--7--6--5------------|----------------------|

--0--0----0--0--0----0--|---------------------|--5--4--3--------5----|

 

 

 

------------------------|------------------------|---------------------|

------------------------|------------------------|---------------------|

------------------------|------------------------|--7--6--5------------|

--0--0----0--0--0----0--|--0--0----0--0--0----0--|---------------------|

 

 

 

----------------------|------------------------|------------------------|

----------------------|------------------------|------------------------|

----------------------|------------------------|------------------------|

--5--4--3--------5----|--0--0----0--0--0----0--|--0--0----0--0--0----0--|

 

 

 

---------------------|----------------------|------------------------|

---------------------|----------------------|------------------------|

--7--6--5------------|----------------------|------------------------|

---------------------|--5--4--3--------5----|--0--0----0--0--0----0--|

 

 

 

------------------------|------------------------|------------------------|

------------------------|------------------------|------------------------|

------------------------|------------------------|------------------------|

--0--0----0--0--0----0--|--0--0----0--0--0----0--|--0--0----0--0--0----0--|

 

 

 

------------------------|------------------------|------------------------|

------------------------|------------------------|------------------------|

------------------------|------------------------|------------------------|

--0--0----0--0--0----0--|--0--0----0--0--0----0--|--0--0----0--0--0----0--|

 

 

 

------------------------|------------------------|------------------------|

------------------------|------------------------|------------------------|

------------------------|------------------------|------------------------|

--0--0----0--0--0----0--|--0--0----0--0--0----0--|--0--0----0--0--0----0--|

 

 

 

------------------------|------------------------|------------------------|

------------------------|------------------------|------------------------|

------------------------|------------------------|------------------------|

--0--0----0--0--0----0--|--0--0----0--0--0----0--|--0--0----0--0--0----0--|

 

 

 

------------------------|------------------------|------------------------|

------------------------|------------------------|------------------------|

------------------------|------------------------|------------------------|

--0--0----0--0--0----0--|--3--3----3--3--3----3--|--5--5----5--5--5----5--|

 

 

 

------------------------|--------------------------|------------------------|

------------------------|--------------------------|------------------------|

--3--3----3--3--3----3--|--5--5--5--5--------------|------------------------|

------------------------|--------------3--3--3--3--|--0--0----0--0--0----0--|

 

 

 

------------------------|---------------------|----------------------|

------------------------|---------------------|----------------------|

------------------------|--7--6--5------------|----------------------|

--0--0----0--0--0----0--|---------------------|--5--4--3--------5----|

 

 

 

------------------------|------------------------|------------------------|

------------------------|------------------------|------------------------|

------------------------|------------------------|------------------------|

--0--0----0--0--0----0--|--0--0----0--0--0----0--|--0--0----0--0--0----0--|

 

 

 

------------------------|------------------------|------------------------|

------------------------|------------------------|------------------------|

------------------------|------------------------|------------------------|

--0--0----0--0--0----0--|--0--0----0--0--0----0--|--0--0----0--0--0----0--|

 

 

 

------------------------|------------------------|---------------------|

------------------------|------------------------|---------------------|

------------------------|------------------------|--7--6--5------------|

--0--0----0--0--0----0--|--0--0----0--0--0----0--|---------------------|

 

 

 

----------------------|----------------------|----------------------|

----------------------|----------------------|----------------------|

----------------------|----------------------|----------------------|

--5--4--3--------5----|--0--0------0--0------|--0--0------0--0------|

 

 

let ring

-------------------|------------------|------------------|------------------|

-------------------|------------------|------------------|------------------|

-------------------|------------------|------------------|------------------|

--0----------------|------------------|------------------|------------------|

 

 

 

------------------|------------------|------------------||

------------------|------------------|------------------||

------------------|------------------|------------------||

------------------|------------------|------------------||

Return to my Velvet Revolver bass tabs page

The Tablature is Copyright its respective owners.

Sign Up For My Newsletter
Subscribe | Unsubscribe

Site Map | Disclaimer | Privacy Policy | Media Kit | Submissions/Corrections

Website © 2000-2014 mattsmusicpage.com. All rights reserved.

Legal & DMCA: Matt's Music Page has been providing lyrics and tabs in a legal way, paying royalties each year to a few organizations. Then, all lyrics and tabs were removed from the site. Now, there's a new owner to the site, which purchased it August 26, 2014, and he is in negotiation to obtain licensing from BMI at the moment. If you have a specific DMCA request -- please do not hesitate to contact me via the contact button on top. I will do my very best to keep this site fully legal.

Get our toolbar!

 

1983 SEALED LP Return of the Jedi + 1977 Star Wars Vinyl 2 Record Set - Sci-Fi
$22.5
1983 SEALED LP Return of the Jedi + 1977 Star Wars Vinyl 2 Record Set - Sci-Fi picture


Frank Sinatra - Swingin Lovers & Sept of My Years (Reprise)[LP-Vinyl] RECORDS
$10.0
Frank Sinatra - Swingin Lovers & Sept of My Years (Reprise)[LP-Vinyl] RECORDS picture


Ion Audio Turntable & Vinyl Record Archiver with USB Connector TTUSB10 - EUC
$59.99
Ion Audio Turntable & Vinyl Record Archiver with USB Connector TTUSB10 - EUC picture


Vintage 1975 LP Big Rig Truckers LP Put the Hammer Down - Vinyl Record
$15.99
Vintage 1975 LP Big Rig Truckers LP Put the Hammer Down - Vinyl Record picture


1970`s Sanrio HELLO KITTY Vinyl Record STICKERS Vintage VERY RARE
$0.99
1970`s Sanrio HELLO KITTY Vinyl Record STICKERS Vintage VERY RARE picture