Your One-Stop Source For
Music Lyrics
Bass and Guitar Tabs
and More...
Music Lyrics Bass and Guitar Tabs

 

The Tabs Are Below

Learn To Read Tab
Chords Handbook
Corrections & Additions
Get Official Tab
U2 tabs @ 911Tabs

 

Twilight

U2

 

 

tune down 1/2 step

verse

x24 i look into his eyes... n.h.(natural harmonics)

|-------0-------5--|--0--5--0--|--0--3--0--5--0--7--0--5-|--12----|

|---0-3-----0-3----|--0--0-----|--0-----0-----0-----0----|----12--|

|*----------------*|-----------|-------------------------|--------|

|*----------------*|-----------|-------------------------|--------|

|------------------|-----------|-------------------------|--------|

|------------------|-----------|-------------------------|--------|

 

|--0--3--0--5--0--7--0--8--8--10--|

|--0-----0-----0-----0------------|

|---------------------------------|

|---------------------------------| after verse play intro again, then

|---------------------------------| verse again

|---------------------------------|

 

chorus

 

twilight....

|---0---|---2---|---3---|---2---|--------------|--------------|

|---0---|---0---|---0---|---0---|--------------|--------------|

|*--0---|---2---|---4---|---2--*|*------------*|--------------|

|*------|-------|-------|------*|*------------*|--------------|

|-------|-------|-------|-------|--------------|--------------|

|-------|-------|-------|-------|--0-2-3-0-2-3-|--0-2-3-0-2-3-|

 

in the shadows, boy meets man

|------0------|-------3------|

|------2------|-------3------|

|*-----2------|-------0-----*|

|*-----2------|-------0-----*|

|------0------|-------2------|

|-------------|-------3------|

 

Return to my to my U2 tabs page

The Tablature is Copyright its respective owners.

Sign Up For My Newsletter
Subscribe | Unsubscribe

Site Map | Disclaimer | Privacy Policy | Media Kit | Submissions/Corrections

Website © 2000-2014 mattsmusicpage.com. All rights reserved.

Legal & DMCA: Matt's Music Page has been providing lyrics and tabs in a legal way, paying royalties each year to a few organizations. Then, all lyrics and tabs were removed from the site. Now, there's a new owner to the site, which purchased it August 26, 2014, and he is in negotiation to obtain licensing from BMI at the moment. If you have a specific DMCA request -- please do not hesitate to contact me via the contact button on top. I will do my very best to keep this site fully legal.

Get our toolbar!