Your One-Stop Source For
Music Lyrics
Bass and Guitar Tabs
and More...
Music Lyrics Bass and Guitar Tabs

 

The Tabs Are Below

Learn To Read Tab
Chords Handbook
Corrections & Additions
Get Official Tab
U2 tabs @ 911Tabs

 

Red Hill Mining Town

U2

 

 

Intro:

 

GUITAR

 

G C

 

E-----7-----7-----7-----7------7-----0-----0-----0-----0-----0---

B---8-----8-----8-----8------8-----1-----1-----1-----1-----1-----

G-7-----7-----7-----7------7-----0-----0-----0-----0-----0-------

|

| BASS

|

D----------------------------------------------------------------

A----------------------------------------------------------------

E------------------------------------------------------------8\3-

 

GUITAR

 

G C

 

E-----7-----7-----7-----7------7-----0-----0-----0-----0-----0--

B---8-----8-----8-----8------8-----1-----1-----1-----1-----1----

G-7-----7-----7-----7------7-----0-----0-----0-----0-----0------

|

| BASS

|

D---------------------------------------------------------------

A---------------------------------------------------------------

E------------------------------8\3--------------------------8/10

 

GUITAR

 

D A

 

E-----2-----2-----2-----2------2-----5-----5-----5-----5-----5--

B---3-----3-----3-----3------3-----5-----5-----5-----5-----5----

G-2-----2-----2-----2------2-----6-----6-----6-----6-----6------

|

| BASS

|

D---------------------------------------------------------------

A---------------------------------------------------------------

E-----------------------------10\5---------------------------5/1

 

 

GUITAR

 

F F

 

E-----1-----1-----1-----1------1-----1-----1-----1-----1-----1--

B---1-----1-----1-----1------1-----1-----1-----1-----1-----1----

G-2-----2-----2-----2------2-----2-----2-----2-----2-----2------

 

G C

From Father to Son the blood runs thin

G C

Our faces frozen (still) against the wind

G C

The seam is split, the coal face cracked

G C

The lines are long and there's no going back

G C

Through hands of steel and a heart of stone

G C D

Our labour day has come and gone

A

And you leave us holding on

F

In Red Hill Town, as the lights go down

 

G D

I'm hanging on

F C

You're all that's left to hold on to

G D

I'm holding on

F C

You're all that's left to hold on to

 

The glass is cut, the bottle runs dry

Our love runs cold in the caverns of the night

We're wounded by fear, injured in doubt

I can lose myself, you I can't live without

Because you keep me holding on

In Red Hill Town, as the lights go down

 

I'm hanging on ...

 

And we scorch the earth, set fire to the sky

Stoop so low to reach so hihgh

A link is lost, the chain undone

Now we wait all day for the night to come

And it comes

And it comes

Like a hunter (child)

 

I'm hanging on

You're all that's left to hold on to

I'm hanging on

You're all that's left to hold on to

G D

We see love slowly stripped away

F C

Our love, has seen a better day

 

I'm hanging on

You're all that's left to hold on to

I'm holding on

You're all that's left to hold on to

See the lights go down on Red Hill Town

See lights go down on Red Hill Town

 

Return to my to my U2 tabs page

The Tablature is Copyright its respective owners.

Sign Up For My Newsletter
Subscribe | Unsubscribe

Site Map | Disclaimer | Privacy Policy | Media Kit | Submissions/Corrections

Website © 2000-2014 mattsmusicpage.com. All rights reserved.

Legal & DMCA: Matt's Music Page has been providing lyrics and tabs in a legal way, paying royalties each year to a few organizations. Then, all lyrics and tabs were removed from the site. Now, there's a new owner to the site, which purchased it August 26, 2014, and he is in negotiation to obtain licensing from BMI at the moment. If you have a specific DMCA request -- please do not hesitate to contact me via the contact button on top. I will do my very best to keep this site fully legal.

Get our toolbar!