Your One-Stop Source For
Music Lyrics
Bass and Guitar Tabs
and More...
Music Lyrics Bass and Guitar Tabs

 

The Tabs Are Below

Learn To Read Tab
Chords Handbook
Corrections & Additions
Get Official Tab
U2 tabs @ 911Tabs

 

Please

U2

 

 

Tune down 1/2 step--it's in B minor.

 

Intro:

1----------------------

2---12---14---17---15--

3----------------------

4----------------------

5----------------------

6----------------------

 

1------------------

2---0---2---5---3--

3------------------

4------------------

5------------------

6------------------

 

So you never knew love until you crossed the line of grace

And you never felt wanted till you had someone slap your face

So you never felt alive until you almost wasted away

 

background pre-chorus:

1---7---10--

2---7---7---

3---7---7---

4-----------

5-----------

6-----------

 

play with above 3 times:

1-----------

2-----------

3-----------

4---4p2--4--

5-----------

6-----------

 

1 time:

1---------------------------------

2---------------------------------

3---4p2---4---2---4---2--------2--

4--------------------------4------

5---------------------------------

6---------------------------------

 

You had to win, you couldn't just pass

The smartest ass at the top of the class

Your flying colours, your family tree

And all your lessons in history

Please

 

1--------------

2--------------

3---4---6---7--

4--------------

5--------------

6--------------

 

Please

 

1----------------

2----------------

3---4---4/6---4--

4----------------

5----------------

6----------------

 

Please get up off your knees

Please, please, please, please

 

3 times:

1--------------------

2--------------------

3--------------------

4--------------------

5---2p0---2---0---2--

6--------------------

 

1 time:

1----------------------------

2----------------------------

3----------------------------

4----------------------------

5---2p0--2--0--2--0-------0--

6---------------------2------

 

And you never knew how low you'd stoop to make that call

And you never knew what was on the ground till they made you crawl

So you never knew that that the heaven you keep you stole

Your Catholic blues, your convent shoes

Your stick-on tattoos, now they're making news

Your holy war, your northern star

Your sermon on the mount from the boot of your car

Please, please, please get up off your knees

Please, please, please leave me out of this please

 

Bm A A Bm

So love is hard, and love is tough

 

Bm A Em Bm

But love is not what you're thinking of

 

electronic bit:

1----------------------------

2----------------------------

3----------------------------

4----------------------------

5---0h2---2---2---2---0---2--

6----------------------------

 

1-----------------------------

2-----------------------------

3---2h4---4---4---2---4-------

4--------------------------4--

5-----------------------------

6-----------------------------

 

September, streets capsizing, spilling over down the drain

Shards of glass splinters like rain

But you could only feel your pain

October, talking getting nowhere

November, December, remember

Are we just starting again?

 

1----------------------

2----------------------

3---4---7---4---7---4--

4----------------------

5----------------------

6----------------------

 

Please, please, please get up off of your knees

Please, please, please, please

 

1------------------------

2-------------------<7>--

3-----------<7>----------

4---<7>------------------

5------------------------

6------------------------

 

So love is bigger than us

But love is not what you're thinking of

It's what lovers deal, it's what lovers steal

 

with delay:

1---7--------9---------7-----------10p7------

2-------7---------7---------7-------------7--

3--------------------------------------------

4--------------------------------------------

5--------------------------------------------

6--------------------------------------------

 

You know I've found it hard to receive

Cause you, my love, I could never believe

 

Return to my to my U2 tabs page

The Tablature is Copyright its respective owners.

Sign Up For My Newsletter
Subscribe | Unsubscribe

Site Map | Disclaimer | Privacy Policy | Media Kit | Submissions/Corrections

Website © 2000-2014 mattsmusicpage.com. All rights reserved.

Legal & DMCA: Matt's Music Page has been providing lyrics and tabs in a legal way, paying royalties each year to a few organizations. Then, all lyrics and tabs were removed from the site. Now, there's a new owner to the site, which purchased it August 26, 2014, and he is in negotiation to obtain licensing from BMI at the moment. If you have a specific DMCA request -- please do not hesitate to contact me via the contact button on top. I will do my very best to keep this site fully legal.

Get our toolbar!