Your One-Stop Source For
Music Lyrics
Bass and Guitar Tabs
and More...
Music Lyrics Bass and Guitar Tabs

 

The Tabs Are Below

Learn To Read Tab
Chords Handbook
Corrections & Additions
Get Official Tab
U2 tabs @ 911Tabs

 

The Playboy Mansion

U2

 

 

intro, with wah:

1------------------------------------

2------------------------------------

3----------9-------------------------

4---9/11-------11---9--9------11--11-

5-------------------------11---------

6------------------------------------

 

1-------------------------------------

2-------------------------------------

3-----------9-------------------------

4---9h11---------11--11--9--9--11--11-

5-------------------------------------

6-------------------------------------

 

1------------------------------

2------------------------------

3---------9--------------------

4---9h11-----11--9-------9--11-

5--------------------11--------

6------------------------------

 

1------------------

2------------------

3------------------

4------------------

5---11---9---------

6--------------12--

 

1------------------------------

2------------------------------

3------------------------------

4------------------------------

5---9/11--9--------9--11-------

6-------------12-----------12--

 

(intro played with this riff, same riff during slide part):

1----------

2---9---9--

3---9---9--

4---9---9--

5----------

6----------

 

E

If Coke is a mystery, Michael Jackson...history

 

(use these next 2 riffs as the basis for solos during the verse):

1-----------------------

2---9/10--9-------------

3------------11--9------

4--------------------11-

5-----------------------

6-----------------------

 

A

If beauty is truth

 

1-----------------------

2-----------------------

3---11--9--------9------

4-----------11-------9--

5-----------------------

6-----------------------

 

E

And surgery...the fountain of youth

 

C#m F#m

What am I to do?

C#m A

Have I got the gifts to get me through

E

The gates of that mansion

 

1------------------

2---7\5-------3/5--

3------------------

4---7\4-------4/6--

5------------------

6------------------

 

E

If OJ is more than a drink

And a Big Mac bigger than you think

 

A

If perfume is an obsession

 

E

And talk shows...confession

 

C#m F#m

What have we got to lose?

 

C#m A

Another push and maybe we'll be through

 

E

The gates of that mansion

I never bought a lotto ticket, I never parked in anyone's space

The banks they're like cathedrals, I guess casinos took their place

 

A E

Love come on down, don't wake her she'll come around

Chance is a kind of religion

Where you're damned for plain hard luck

I never did see that movie, never did read that book

 

A E

Love come on down, let my numbers come around

 

C#m F#m

Don't know if I can hold on

 

C#m A

Don't know if I'm that strong

 

C#m F#m

Don't know if I can wait that long

 

C#m A

Till the colours come flashing and the lights go on

 

E

Then will there be no time for sorrow?

Then will there be no time for shame?

 

A E

Though I can't say why, I know I've got to believe

 

C#m F#m

We'll go driving in that pool

 

C#m A

It's who you know that gets you through

 

E

The gates of the playboy mansion

Then will there be no time of sorrow?

Then will there be no time for pain?

Then will there be no tome of sorrow?

Then will there be no time for shame?

 

Return to my to my U2 tabs page

The Tablature is Copyright its respective owners.

Sign Up For My Newsletter
Subscribe | Unsubscribe

Site Map | Disclaimer | Privacy Policy | Media Kit | Submissions/Corrections

Website © 2000-2014 mattsmusicpage.com. All rights reserved.

Legal & DMCA: Matt's Music Page has been providing lyrics and tabs in a legal way, paying royalties each year to a few organizations. Then, all lyrics and tabs were removed from the site. Now, there's a new owner to the site, which purchased it August 26, 2014, and he is in negotiation to obtain licensing from BMI at the moment. If you have a specific DMCA request -- please do not hesitate to contact me via the contact button on top. I will do my very best to keep this site fully legal.

Get our toolbar!

 

Starbucks You Are Here Coffee Mug/Cup KENTUCKY - Horses, Banjo, Blue, White
$19.99
Starbucks You Are Here Coffee Mug/Cup KENTUCKY - Horses, Banjo, Blue, White picture


KNOWLES ROCKWELL HERITAGE "THE BANJO PLAYER" FIRST EDITION 1989 PLATE COA
$5.99
KNOWLES ROCKWELL HERITAGE


Vintage Postcard 1981 Disney World Banjo Kings Main Street USA 1981 Postmark
$4.99
 Vintage Postcard 1981 Disney World Banjo Kings Main Street USA 1981 Postmark picture


Banjo Barometer With Thermometer Hygrometer 490mm
$84.76
Banjo Barometer With Thermometer Hygrometer 490mm picture


ANTIQUE JAPANESE NIPPON FIGURINE SET OF 3 WOMEN GEISHA PLAYING DRUM BANJO FAN
$24.0
ANTIQUE JAPANESE NIPPON FIGURINE SET OF 3 WOMEN GEISHA PLAYING DRUM BANJO FAN picture