Your One-Stop Source For
Music Lyrics
Bass and Guitar Tabs
and More...
Music Lyrics Bass and Guitar Tabs

 

The Tabs Are Below

Learn To Read Tab
Chords Handbook
Corrections & Additions
Get Official Tab
U2 tabs @ 911Tabs

Party Girl By U2

----------------

Tabbed by: Tom Murtaugh (sia@fast.net)

 

I was on the archive and I saw this songs transcribtion wasn't that great,

so I thought I would give a try.

First of all the chords are wrong the Bm should be a Bmsus4 and the E major

should be an Em. These are the correct chords

 

Bmsus4 Em A

1----0------0------0------

2----3------0------2------

3----4------0------2------

4----4------2------2------

5----0------2------0------

6-----------0-------------

 

Second of all these are the chords played through out the whole song there is no

break where there is just the Bm and Em.

Third of all the solo is a little off, I think this is right or it's real close.

I'm only gonna tab the first three strings for simplicity.

 

1----12---14-12-10-9-10-7-9-10-12-10-9-7----

2-------------------------------------------

3-------------------------------------------

 

Now this next part is where Edge messed up, I think the Eb was suppost to be a D.

 

1----9-11-9--7-9-7--5-7---12-12-12-12-12bend----

2-----------------------------------------------

3-----------------------------------------------

 

This last part is where as called in POP Bono does some "scat singing", I don't

know but it might be an octave higher.

 

1--------------------------------------------------------------------

2----5-5-5-7-5-5-3-2-3-0--5-5-5-7-5-5-3-2---0--5-5-5-7-5-5-3-2-3-0---

3-----------------------------------------2--------------------------

 

The rest of the song I think is right, so hope you enjoy. Keep those tabs coming

 

 

 

Return to my to my U2 tabs page

The Tablature is Copyright its respective owners.

Sign Up For My Newsletter
Subscribe | Unsubscribe

Site Map | Disclaimer | Privacy Policy | Media Kit | Submissions/Corrections

Website © 2000-2014 mattsmusicpage.com. All rights reserved.

Legal & DMCA: Matt's Music Page has been providing lyrics and tabs in a legal way, paying royalties each year to a few organizations. Then, all lyrics and tabs were removed from the site. Now, there's a new owner to the site, which purchased it August 26, 2014, and he is in negotiation to obtain licensing from BMI at the moment. If you have a specific DMCA request -- please do not hesitate to contact me via the contact button on top. I will do my very best to keep this site fully legal.

Get our toolbar!