Your One-Stop Source For
Music Lyrics
Bass and Guitar Tabs
and More...
Music Lyrics Bass and Guitar Tabs

 

The Tabs Are Below

Learn To Read Tab
Chords Handbook
Corrections & Additions
Get Official Tab
U2 tabs @ 911Tabs

 

Out of Control

U2

 

 

Tune Down 1/2 Step

 

Intro

(n.h.)

|-----5---2-|-----5---2-|-0-0--0-0-|-0-0----12-|

|-----2---3-|-----2---3-|------0---|-----12----|

|-2---------|-2---------|----------|-----------|

|-0---------|-0---------|----------|-----------|

|-----------|-----------|----------|-----------|

|-----------|-----------|----------|-----------|

 

(n.h.)

|-----5---2-|-----5---2-|-5-2-5-0-0--0-0-----12-|-5/7-5/7-5/7-5/7-|

|-----2---3-|-----2---3-|------------0----12----|-5/7-5/7-5/7-5/7-|

|-2---------|-2---------|-----------------------|-----------------|

|-0---------|-0---------|-----------------------|-----------------|

|-----------|-----------|-----------------------|-----------------|

|-----------|-----------|-----------------------|-----------------|

 

 

VERSE

 

Monday Morning...

 

|----------|---------|---------|---------|

|--3-3-3-3-|-3-3-3-3-|---------|---------|

|*-2-2-2-2-|-2-2-2-2*|*2-2-2-2-|-2-2-2-2*| PLAY VERSE AGAIN

|*-0-0-0-0-|-0-0-0-0*|*2-2-2-2-|-2-2-2-2*|

|----------|---------|-0-0-0-0-|-0-0-0-0-|

|----------|---------|---------|---------|

 

 

 

CHORUS

 

I had a feeling...... Oooh..way..ooh Oooh..way.ooh

x5

|--3--3--3--3--|---5---|--3----5----3---|--5----7----5--|

|--3--3--3--3--|---5---|--3----5----3---|--5----7----5--|

|*-------------|------*|----------------|---------------|

|*-------------|------*|----------------|---------------|

|--------------|-------|----------------|---------------|

|--------------|-------|----------------|---------------|

 

Return to my to my U2 tabs page

The Tablature is Copyright its respective owners.

Sign Up For My Newsletter
Subscribe | Unsubscribe

Site Map | Disclaimer | Privacy Policy | Media Kit | Submissions/Corrections

Website © 2000-2014 mattsmusicpage.com. All rights reserved.

Legal & DMCA: Matt's Music Page has been providing lyrics and tabs in a legal way, paying royalties each year to a few organizations. Then, all lyrics and tabs were removed from the site. Now, there's a new owner to the site, which purchased it August 26, 2014, and he is in negotiation to obtain licensing from BMI at the moment. If you have a specific DMCA request -- please do not hesitate to contact me via the contact button on top. I will do my very best to keep this site fully legal.

Get our toolbar!