Your One-Stop Source For
Music Lyrics
Bass and Guitar Tabs
and More...
Music Lyrics Bass and Guitar Tabs

 

The Tabs Are Below

Learn To Read Tab
Chords Handbook
Corrections & Additions
Get Official Tab
U2 tabs @ 911Tabs

 

The Ocean

U2

 

 

bass enters guitar enters Gb6

E--------------|---14--------13---11-|--------------------|---11---------

B--------------|--------11-----------|---14--------13-----|---11---------

G--------------|---------------------|--------11--------8-|---11---------

D--------------|---------------------|--------------------|---11---------

A--------------|---------------------|--------------------|--------------

E--------------|---------------------|--------------------|--------------

 

 

E-------------------------------------|--11---------------|--------------

B-------------------------------------|------11-----------|--------------

G-------------------------------------|---------11--------|--------------

D-------------------------------------|--------------11---|--------------

A-------------------------------------|-------------------|--------------

E-------------------------------------|-------------------|--------------

picture in grey, Dorian Grey just me by the sea and I felt

 

E-----------------------------------------------------|--11--------------

B-----------------------------------------------------|-------11---------

G-----------------------------------------------------|------------11----

D-----------------------------------------------------|------------------

A-----------------------------------------------------|------------------

E-----------------------------------------------------|------------------

like a star I thought the world could go far if they listened to what

 

E------------------|---14--------13---11-|-------------------------------

B------------------|--------11-----------|---14--------13----------------

G------------------|---------------------|--------11--------8------------

D-11---------------|---------------------|-------------------------------

A------------------|---------------------|-------------------------------

E------------------|---------------------|-------------------------------

I said...the Sea

Ebm

E---14---13---11---|---------------------|-------------13------|---11----

B------------------|---14--------13------|---14---11--------14-|---11----

G------------------|--------11--------8--|---------------------|---11----

D------------------|---------------------|---------------------|---------

A------------------|---------------------|---------------------|---------

E------------------|---------------------|---------------------|---------

washes......my feet

H

E------------------|-----------------------------------------------------

B---2-------6---2--|------------------------------8----11----------------

G-------3----------|-----------------------------------------------------

D------------------|-----------------------------------------------------

A------------------|-----------------------------------------------------

E------------------|-----------------------------------------------------

washes my feet ahhh... splashes the soul of my shoes

 

fade out---

E--------------------------|--------------|---------------|--------------

B---13---11---9---8/9------|--------------|---------------|--------------

G-----------------------11-|---12/13---12-|---12---8---10-|---13---15-12-

D--------------------------|--------------|---------------|--------------

A--------------------------|--------------|---------------|--------------

E--------------------------|--------------|---------------|--------------

 

Return to my to my U2 tabs page

The Tablature is Copyright its respective owners.

Sign Up For My Newsletter
Subscribe | Unsubscribe

Site Map | Disclaimer | Privacy Policy | Media Kit | Submissions/Corrections

Website © 2000-2014 mattsmusicpage.com. All rights reserved.

Legal & DMCA: Matt's Music Page has been providing lyrics and tabs in a legal way, paying royalties each year to a few organizations. Then, all lyrics and tabs were removed from the site. Now, there's a new owner to the site, which purchased it August 26, 2014, and he is in negotiation to obtain licensing from BMI at the moment. If you have a specific DMCA request -- please do not hesitate to contact me via the contact button on top. I will do my very best to keep this site fully legal.

Get our toolbar!

 

VINTAGE SORRENTO MUSIC JEWELRY BOX
$45.0
VINTAGE SORRENTO MUSIC JEWELRY BOX picture


VINTAGE LACQUERED MUSIC BOX JAPAN
$25.99
VINTAGE LACQUERED MUSIC BOX JAPAN picture


Vintage Kehlsteinhaus Bavaria Germany Colorscope Cow Bell View Master Music Box
$8.99
Vintage Kehlsteinhaus Bavaria Germany Colorscope Cow Bell View Master Music Box picture


VINTAGE SCHMIDT Signed Collectible Musical Turning Clown
$9.99
VINTAGE  SCHMIDT Signed Collectible Musical Turning Clown picture


Vintage - Linen - Postcard - Stage - Radio City Music Hall - New York City
$3.75
Vintage - Linen - Postcard - Stage - Radio City Music Hall - New York City   picture