Your One-Stop Source For
Music Lyrics
Bass and Guitar Tabs
and More...
Music Lyrics Bass and Guitar Tabs

 

The Tabs Are Below

Learn To Read Tab
Chords Handbook
Corrections & Additions
Get Official Tab
U2 tabs @ 911Tabs

 

Mofo

U2

 

 

synthesizer riff:

1----------------------------------------------------------------------

2----------------------------------------------------------------------

3----------------------------------------------------------------------

4----------------------------------------------------------------------

5---7p0-0-0-0-0-0-0--3p0-0-0-0-0-0-0--3p0-0-0-0-0-0-0--0-3-3-4-5-6-7-7-

6----------------------------------------------------------------------

 

pitches of random noises:

1---15---15\3/5--

2----------------

3----------------

4----------------

5----------------

6----------------

 

1------------

2---12b(13)--

3------------

4------------

5------------

6------------

 

1------------

2---13b(15)--

3------------

4------------

5------------

6------------

 

 

1---------------------------------

2---------------------------------

3--------------------<5>-<5>-<5>--

4---5-5-3-3-2-2-0-0---------------

5---------------------------------

6---------------------------------

 

basic keyboard riff over verse:

1--------------|------------|------------|------------|

2--------------|------------|------------|------------|

3---7--7--7--7-|-5--5--5--5-|-2--2--2--2-|-2--2--2--2-|

4---7--7--7--7-|-5--5--5--5-|-2--2--2--2-|-2--2--2--2-|

5--------------|------------|------------|------------|

6--------------|------------|------------|------------|

 

Lookin' for to save my, save my soul

Lookin' for the places where no flowers grow

Lookin' for to fill that GOD shaped hole

Mother mother sucking rock and roll

Holy dunc, spacejunk comin'in for the spash

(been around the back...been around the front)

White dopes on punk staring into the flash

Lookin' for baby Jesus under the trash

Mother mother sucking rock and rooll

Mother..rock and roll

 

Am

1---5---------5/17----12--13--15----------

2---5-----------------------------13--10--

3---5-------------------------------------

4---7-------------------------------------

5---7-------------------------------------

6---5-------------------------------------

 

Am G

Mother, am I still your son?

 

F Am

You know I've waited so long to hear you say so

 

Am G

Mother, you left and made me someone

 

F Am

Now I'm still a child, but no one tells me "no"

 

During chorus, guitar plays these notes with the corresponding chords:

1-------------------------------------

2---10--------8---------6---------\2--

3-------------------------------------

4-------------------------------------

5-------------------------------------

6-------------------------------------

 

Lookin' for a sound that's gonna drown out the world

Lookin' for the father of my two little girls

Got the swing, got the sway, got my straw in lemonade

Still looking for the face I had before I was made

Mother mother sucking rock and roll

Bubble poppin' sugar droppin' rock and roll

 

1---12-----------12----------12------------13--15--15------------

2---------10-----------10-----------10-------------------13--10--

3----------------------------------------------------------------

4----------------------------------------------------------------

5----------------------------------------------------------------

6----------------------------------------------------------------

 

Woo me sister

Move me brother

Soothe me mother

Rule me father

Show me mother

 

Return to my to my U2 tabs page

The Tablature is Copyright its respective owners.

Sign Up For My Newsletter
Subscribe | Unsubscribe

Site Map | Disclaimer | Privacy Policy | Media Kit | Submissions/Corrections

Website © 2000-2014 mattsmusicpage.com. All rights reserved.

Legal & DMCA: Matt's Music Page has been providing lyrics and tabs in a legal way, paying royalties each year to a few organizations. Then, all lyrics and tabs were removed from the site. Now, there's a new owner to the site, which purchased it August 26, 2014, and he is in negotiation to obtain licensing from BMI at the moment. If you have a specific DMCA request -- please do not hesitate to contact me via the contact button on top. I will do my very best to keep this site fully legal.

Get our toolbar!

 

Starbucks You Are Here Coffee Mug/Cup KENTUCKY - Horses, Banjo, Blue, White
$19.99
Starbucks You Are Here Coffee Mug/Cup KENTUCKY - Horses, Banjo, Blue, White picture


KNOWLES ROCKWELL HERITAGE "THE BANJO PLAYER" FIRST EDITION 1989 PLATE COA
$5.99
KNOWLES ROCKWELL HERITAGE


Vintage Postcard 1981 Disney World Banjo Kings Main Street USA 1981 Postmark
$4.99
 Vintage Postcard 1981 Disney World Banjo Kings Main Street USA 1981 Postmark picture


Banjo Barometer With Thermometer Hygrometer 490mm
$84.76
Banjo Barometer With Thermometer Hygrometer 490mm picture


ANTIQUE JAPANESE NIPPON FIGURINE SET OF 3 WOMEN GEISHA PLAYING DRUM BANJO FAN
$24.0
ANTIQUE JAPANESE NIPPON FIGURINE SET OF 3 WOMEN GEISHA PLAYING DRUM BANJO FAN picture