Your One-Stop Source For
Music Lyrics
Bass and Guitar Tabs
and More...
Music Lyrics Bass and Guitar Tabs

 

The Tabs Are Below

Learn To Read Tab
Chords Handbook
Corrections & Additions
Get Official Tab
U2 tabs @ 911Tabs

 

I Threw A Brick Through A Window

U2

 

(live version)

 

Tune down half a step.

h = hammer on / = slide up \ = slide down

 

 

INTRO1:

 

(x4)

e|----------------------------------------------------------------------12--|

B|----------------------------------------------------------------------12--|

G|------------------------------6-----------------6---------------------12--|

D|-----------7--------------7-----------------7-----------------7-------12--|

A|---------7---7--5-------7---7---5h7-------7---7---5h7-------7---7---------|

E|-12\--0--------------0-----------------0-----------------0----------------|

 

 

 

 

INTRO2: (A slight variation of INTRO1)

 

 

(x4)

e|----------------------------------------------------------------------12--|

B|----------------------------------------------------------------------12--|

G|-------------------------6-----------------0--------------------------12--|

D|------7--------------7-----------------7-----------------7------------12--|

A|----7---7--5-------7---7---5h7-------7---7-------------7---7--------------|

E|-0--------------0-----------------0-----------------0---------------------|

 

 

 

VERSE:

 

 

 

let ring let ring

 

e|--12-------------15-15-15--14-14-14--12-12-12---------8-------0-----------|

B|--12-------------15-15-15--14-14-14--12-12-12---------8-------0-----------|

G|--12-------------12-12-12--12-12-12--12-12-12---------9-------9-----------|

D|--12-------------12-12-12--12-12-12--12-12-12--------10------10-----------|

A|-----------------------------------------------------10------10-----------|

E|------------------------------------------------------8-------8-----------|

 

 

 

 

 

let ring let ring

e|--12-------------15-15-15--14-14-14--12-12-12---------8-------0-----------|

B|--12-------------15-15-15--14-14-14--12-12-12---------8-------0-----------|

G|--12-------------12-12-12--12-12-12--12-12-12---------9-------9-----------|

D|--12-------------12-12-12--12-12-12--12-12-12--------10------10-----------|

A|-----------------------------------------------------10------10-----------|

E|------------------------------------------------------8-------8-----------|

 

 

 

CHORUS:

 

e|--------------------------------------------------------------------------|

B|--------------------------------------------------------------------------|

G|---12\10--10--10/12--12\10--10--10----10/12--12--10----10/12--12----------|

D|---12\10--10--10/12--12\10--10--10----10/12--12--10----10/12--12----------|

A|---10\8----8---8/10--10\8----8---8-----8/10--10---8-----8/10--10----------|

E|--------------------------------------------------------------------------|

 

 

 

Palm Mute

e|--------------------------------------------------------------------------|

B|--------------------------------------------------------------------------|

G|---12\10--10--10/12--12\10--10--10------11----11--11--11------------------|

D|---12\10--10--10/12--12\10--10--10--------12--12--12--12---10--12\--------|

A|---10\8----8---8/10--10\8----8---8----12------12--12--12---10--12\--------|

E|--------------------------------------10------10--10--10---10--10\--------|

 

 

 

SOLO (Use a slide): Transcribed by Steve Ford and Peter Schenk.

 

e|--------------------------------------------------------------------------|

B|------------------------------9------12-------------------------9-----12--|

G|--9\7-7/9-9\7-7/9----9\7-7/9--9----9/12----9\7-7/9-9\7-7\5-7/9--9---9/12--|

D|--------------------------------------------------------------------------|

A|--------------------------------------------------------------------------|

E|--------------------------------------------------------------------------|

 

 

 

e|-----------------------------------------------12\------------------------|

B|--------------------------------9------12------12\------------------------|

G|---9\7-7/9-9\7-7/9-----9\7-7/9--9----9/12------12\------------------------|

D|--------------------------------------------------------------------------|

A|--------------------------------------------------------------------------|

E|--------------------------------------------------------------------------|

 

 

(Intro1)

 

(Verse)

 

I was talking

I was talking to myself, somebody else

Talk, talk, talking

I couldn't hear a word

A word you said

 

(Chorus)

 

He was my brother

I said there was no other way out of here

Be my brother

I got to get out

 

(Intro1)

 

(Verse)

 

I was walking

I was walking into walls

I'm back again, just keep walking

I walk into a window to see myself

And my reflection

When I thought about it

My direction

Going nowhere, nowhere

 

(Intro2)

 

(Solo)

No one, no one is blinder

Than he who will not see

No one, no one is blinder than me

 

(Intro1)

 

(Verse)

 

I was talking

I was talking in my sleep

I can stop talk talk talking

I'm talking to you

It's up to you

 

(Chorus)

 

Be my brother

There is no other way out of here

Be my brother

Gonna get out, gonna get out, out of here

 

Return to my to my U2 tabs page

The Tablature is Copyright its respective owners.

Sign Up For My Newsletter
Subscribe | Unsubscribe

Site Map | Disclaimer | Privacy Policy | Media Kit | Submissions/Corrections

Website © 2000-2014 mattsmusicpage.com. All rights reserved.

Legal & DMCA: Matt's Music Page has been providing lyrics and tabs in a legal way, paying royalties each year to a few organizations. Then, all lyrics and tabs were removed from the site. Now, there's a new owner to the site, which purchased it August 26, 2014, and he is in negotiation to obtain licensing from BMI at the moment. If you have a specific DMCA request -- please do not hesitate to contact me via the contact button on top. I will do my very best to keep this site fully legal.

Get our toolbar!

 

VINTAGE SORRENTO MUSIC JEWELRY BOX
$45.0
VINTAGE SORRENTO MUSIC JEWELRY BOX picture


VINTAGE LACQUERED MUSIC BOX JAPAN
$25.99
VINTAGE LACQUERED MUSIC BOX JAPAN picture


Vintage Kehlsteinhaus Bavaria Germany Colorscope Cow Bell View Master Music Box
$8.99
Vintage Kehlsteinhaus Bavaria Germany Colorscope Cow Bell View Master Music Box picture


VINTAGE SCHMIDT Signed Collectible Musical Turning Clown
$9.99
VINTAGE  SCHMIDT Signed Collectible Musical Turning Clown picture


Vintage - Linen - Postcard - Stage - Radio City Music Hall - New York City
$3.75
Vintage - Linen - Postcard - Stage - Radio City Music Hall - New York City   picture