Your One-Stop Source For
Music Lyrics
Bass and Guitar Tabs
and More...
Music Lyrics Bass and Guitar Tabs

 

The Tabs Are Below

Learn To Read Tab
Chords Handbook
Corrections & Additions
Get Official Tab
U2 tabs @ 911Tabs

 

Into The Heart

U2

 

 

Tune down 1/2 step: Eb Ab Db Gb Bb Eb

 

Bass plays eighth notes throughout intro

 

Intro (immediately after "An Cat Dubh"):

D C

|--------------------------------------------------------|

|--------7-------------12----12----10--------------------|

|-----7------------12-----------12-----------------------|

|--7-----------12---------------------12-----------------|

|--------------------------------------------------------|

|--------------------------------------------------------|

 

 

C

|--10------10------10-8-7------10------10------10-8-7----|

|-----8-------8-----8-----5-------8-------8-----8-----5--|

|--------------------------------------------------------|

|--------------------------------------------------------|

|--------------------------------------------------------|

|--------------------------------------------------------|

 

C

|--7-----------------------------------------------------|

|--8--(7h8)----------------------------------------------|

|----------(7h9)-----------------------------------------|

|--------------------------------------------------------|

|--------------------------------------------------------|

|--------------------------------------------------------|

 

C

|--10------10------10-8-7------10------10------10-8-7----|

|-----8-------8-----8-----5-------8-------8-----8-----5--|

|--------------------------------------------------------|

|--------------------------------------------------------|

|--------------------------------------------------------|

|--------------------------------------------------------|

 

C D C D

|--7----------2-2-----------------2-2--------------------|

|--8--8-5-1-3---3----8-5--8-5-1-3---3--------------------|

|--------------------------------------------------------|

|--------------------------------------------------------|

|--------------------------------------------------------|

|--------------------------------------------------------|

 

C B Bb A

|--------------------------------5---3--10-10------------|

|--8-5--5-7-8-7-5---3-5---5-7-8----3---------------------|

|--------------------------------------------------------|

|--------------------------------------------------------|

|--------------------------------------------------------|

|--------------------------------------------------------|

 

 

 

Beginning of actual "Into The Heart" track:

C B

|--10----12------15-------10----12------15---------------|

|-----8----12------15-13-----8----12------15-------------|

|------------12---------------------12-------------------|

|--------------------------------------------------------|

|--------------------------------------------------------|

|--------------------------------------------------------|

 

Bb A

|--10-10-8-6--5---3--10-10-------------------------------|

|---------------3----------------------------------------|

|--------------------------------------------------------|

|--------------------------------------------------------|

|--------------------------------------------------------|

|--------------------------------------------------------|

 

C B

|-------------10----12------15-------10----12------15----|

|----------------8----12------15-13-----8----12------15--|

|------------------------12---------------------12-------|

|--------------------------------------------------------|

|--------------------------------------------------------|

|--------------------------------------------------------|

"into the __heart, of a __child, i'll stay a..."

 

Bb A

|--10-10-8-6--------5---3--10-10-------------------------|

|---------------------3----------------------------------|

|--------------------------------------------------------|

|--------------------------------------------------------|

|--------------------------------------------------------|

|--------------------------------------------------------|

"..while, but I can go back"

 

 

Louder part (drums enter):

C B

|--10---10---10---10----10---10---10---10----------------|

|-----8----8----8----8-----8----8----8----8--------------|

|--------------------------------------------------------|

|--------------------------------------------------------|

|--------------------------------------------------------|

|--------------------------------------------------------|

 

Bb A

|--13----13----13----13-----15----15----15----15---------|

|-----11----11----11----11-----13----13----13----13------|

|--------------------------------------------------------|

|--------------------------------------------------------|

|--------------------------------------------------------|

|--------------------------------------------------------|

 

Repeat C B Bb A sequence 4 times

 

Outro:

C B Bb A

|--10---------10---------10--10--8-6--5---3--10-10-------|

|-----8----------8--------8---8---------3----------------|

|--------------------------------------------------------|

|--------------------------------------------------------|

|--------------------------------------------------------|

|--------------------------------------------------------|

 

C D C D C

|--7----------2-2---------------------------0------------|

|--8--8-5-1-3---3---8-5---8-5--1-3-----0-3--3------------|

|------------------------------------0-------------------|

|--------------------------------------------------------|

|--------------------------------------------------------|

|--------------------------------------------------------|

 

Return to my to my U2 tabs page

The Tablature is Copyright its respective owners.

Sign Up For My Newsletter
Subscribe | Unsubscribe

Site Map | Disclaimer | Privacy Policy | Media Kit | Submissions/Corrections

Website © 2000-2014 mattsmusicpage.com. All rights reserved.

Legal & DMCA: Matt's Music Page has been providing lyrics and tabs in a legal way, paying royalties each year to a few organizations. Then, all lyrics and tabs were removed from the site. Now, there's a new owner to the site, which purchased it August 26, 2014, and he is in negotiation to obtain licensing from BMI at the moment. If you have a specific DMCA request -- please do not hesitate to contact me via the contact button on top. I will do my very best to keep this site fully legal.

Get our toolbar!