Your One-Stop Source For
Music Lyrics
Bass and Guitar Tabs
and More...
Music Lyrics Bass and Guitar Tabs

 

The Tabs Are Below

Learn To Read Tab
Chords Handbook
Corrections & Additions
Get Official Tab
U2 tabs @ 911Tabs

IN A LITTLE WHILE by U2

From the album "All That You Can't Leave Behind"

 

CHORDS USED:

Bm (x24432)

G (320033)

D (xx0232)

A (x02220)

 

 

INTRO:

A F# Bm G D A

-----------------------------------------------------------------

-----5----------7-------------7----8-8--7-------7--5-------------

-/6----6----------6-----------7----7-7--7----7--7--6-------------

-/7------7--(7)/8---8---8/(9)------9-9--7-------7--7-------------

-----------------------------------------------------------------

------------------------------------------------------5(let ring)

 

A F# Bm G D A

---------------------------------------------------5-------------

-----5----------7-------------7----8-8--7-------7--5-------------

-/6----6----------6-----------7----7-7--7-----7-7--6-------------

-/7------7--(7)/8---8---8/(9)------9-9--7-------7--x-------------

---------------------------------------------------7-------------

---------------------------------------------------5-------------

 

VERSE (continue above chords):

Sometimes he adds this fill to the end during the verse...

 

A F# Bm G D A

---------------------------------------------------5-------5-----

-----5----------7-------------7----8-8--7-------7--5------5------

-/6----6----------6-----------7----7-7--7-------7--6-----6-------

-/7------7--(7)/8---8---8/(9)------9-9--7-------7--x-------------

---------------------------------------------------7-------------

---------------------------------------------------5-------------

(repeat)

 

In a little while

Surely you'll be mine

In a little while I'll be there

In a little while

This hurt will hurt no more

I'll be home, love

When the night takes a deep breath

And the daylight has no air

If I crawl, if I come crawling home

Will you be there?

 

Bm G

Ah ooohh

D A

Ah ooohh

 

(back to original verse)

In a little while

I won't blow by every breeze

Friday night running

To Sunday on my knees

That girl, that girl

She's mine

And I've know her since

Since she was a little girl

With Spanish eyes

Oh, when I saw her

In a pram they pushed her by

Oooh, my how you've grown

Well it's been

It's been a little while

 

Bm G

Ah ooohh

D A

Ah ooohh

Bm G

Ah ooohh

D A

Slow down my beating heart

Bm G

Man dreams one day to fly

A D A D

A man takes a rocket ship into the skies

Bm G

He lives on a star that's dying in the night

A D

And follows in the trail

A D

The scatter of light

 

(back to original verse)

Turn it on, turn it on

You turn me on..

 

(back to chords)

Bm G

Slow down my beating heart

A D

Slowly, slowly love

Bm G

Slow down my beating heart

A D

Slowly, slowly love

Bm G

Slow down my beating heart

A D

Slowly, slowly love

 

 

...that's it.

 

 

 

 

Return to my to my U2 tabs page

The Tablature is Copyright its respective owners.

Sign Up For My Newsletter
Subscribe | Unsubscribe

Site Map | Disclaimer | Privacy Policy | Media Kit | Submissions/Corrections

Website © 2000-2014 mattsmusicpage.com. All rights reserved.

Legal & DMCA: Matt's Music Page has been providing lyrics and tabs in a legal way, paying royalties each year to a few organizations. Then, all lyrics and tabs were removed from the site. Now, there's a new owner to the site, which purchased it August 26, 2014, and he is in negotiation to obtain licensing from BMI at the moment. If you have a specific DMCA request -- please do not hesitate to contact me via the contact button on top. I will do my very best to keep this site fully legal.

Get our toolbar!