Your One-Stop Source For
Music Lyrics
Bass and Guitar Tabs
and More...
Music Lyrics Bass and Guitar Tabs

 

The Tabs Are Below

Learn To Read Tab
Chords Handbook
Corrections & Additions
Get Official Tab
U2 tabs @ 911Tabs

 

If You Wear That Velvet Dress

U2

 

 

Tune 1/2 step down--in D minor.

 

acoustic guitar:

1---------------------------------

2-------3---1--------------3---1--

3---------------------2-----------

4---0------------0----------------

5---------------------------------

6---------------------------------

 

1-------------3---1---------------3---1--

2----------------------------------------

3--------0------------------0------------

4---0-----------------0------------------

5----------------------------------------

6----------------------------------------

 

pick with fingers:

1---10--

2---10--

3-------

4-------

5-------

6-------

 

Tonight the moon is playing tricks again

Feeling sea sick again

And the whole world could just dissolve into a glass of water

I've been good 'cause I know you don't want me to

Do you really want me to be as blue as you

It's her daylight that gets me through

We've been here before

Last time you scratched at my door

The moon was naked and cold

I was like a 2 year old who just wanted more

If you wear that velvet dress

If you wear that velvet dress

Tonight the moon's drawn its cutains

It's a private show, no one has to know

I'm wanting

 

1st guitar (delay with infinite repeat)

1---------10--

2---13--------

3-------------

4-------------

5-------------

6-------------

 

2nd guitar (with medium delay)

1--------------13--------13----------13-----------

2---10---11---------11--------11-----------11--10-

3-------------------------------------------------

4-------------------------------------------------

5-------------------------------------------------

6-------------------------------------------------

 

3rd guitar (with heavy delay):

*I've arranged this for an acoustic without a cutaway--I think Edge

plays this higher up on the fretboard, but you can play it using this

solo--I didn't want to alienate the acoustic people here

1---12b13r---10----------10---10--

2------------------13-------------

3---------------------------------

4---------------------------------

5---------------------------------

6---------------------------------

 

1--------10---12b13r---10--------10------

2---13----------------------13--------10-

3----------------------------------------

4----------------------------------------

5----------------------------------------

6----------------------------------------

 

1---12b13r---10---------10---10--

2------------------13------------

3--------------------------------

4--------------------------------

5--------------------------------

6--------------------------------

 

1------------------------------------------10-

2---13---13\11---10---10b11--10---11--13------

3---------------------------------------------

4---------------------------------------------

5---------------------------------------------

6---------------------------------------------

 

1---12b13r---10----------10---10--

2------------------13-------------

3---------------------------------

4---------------------------------

5---------------------------------

6---------------------------------

 

1---------------------------------

2---13---13b15r---13\11---10--11--

3---------------------------------

4---------------------------------

5---------------------------------

6---------------------------------

 

1---------------------------------

2---8/10---11---11---10---8---10--

3---------------------------------

4---------------------------------

5---------------------------------

6---------------------------------

 

1----------------------------------------

2----------------------------------------

3---10b11r--10b11r--13---13b15r--15b17r--

4----------------------------------------

5----------------------------------------

6----------------------------------------

 

1------------------------------

2---13b15r---10\8/10---10b11r--

3------------------------------

4------------------------------

5------------------------------

6------------------------------

 

with delay:

1---13---12---10--

2-----------------

3-----------------

4-----------------

5-----------------

6-----------------

 

Sunlight, sunlight fills my room

It's sharp and it's clear

But nothing at all like the moon

 

use this as the basic solo for next verse:

1---------------------

2---6/8--8/10--10/11--13b15--

3---------------------

4---------------------

5---------------------

6---------------------

 

It's okay, the struggle for things not to say

I never listened to you anyway

And I got my own hands to pray

But if you wear that velvet dress

 

1---15/18--17--18--17--15--12--13\10--

2-------------------------------------

3-------------------------------------

4-------------------------------------

5-------------------------------------

6-------------------------------------

 

If you wear that velvet dress

Tonight the moon is a mirrorball

Light flickers from across the hall

Who'll catch the star when it falls?

 

1------------------------

2------------------------

3---9---10---10/12---10--

4------------------------

5------------------------

6------------------------

 

1-------------------

2-------------------

3---9---10---10b12--

4-------------------

5-------------------

6-------------------

 

Return to my to my U2 tabs page

The Tablature is Copyright its respective owners.

Sign Up For My Newsletter
Subscribe | Unsubscribe

Site Map | Disclaimer | Privacy Policy | Media Kit | Submissions/Corrections

Website © 2000-2014 mattsmusicpage.com. All rights reserved.

Legal & DMCA: Matt's Music Page has been providing lyrics and tabs in a legal way, paying royalties each year to a few organizations. Then, all lyrics and tabs were removed from the site. Now, there's a new owner to the site, which purchased it August 26, 2014, and he is in negotiation to obtain licensing from BMI at the moment. If you have a specific DMCA request -- please do not hesitate to contact me via the contact button on top. I will do my very best to keep this site fully legal.

Get our toolbar!

 

VINTAGE SORRENTO MUSIC JEWELRY BOX
$45.0
VINTAGE SORRENTO MUSIC JEWELRY BOX picture


VINTAGE LACQUERED MUSIC BOX JAPAN
$25.99
VINTAGE LACQUERED MUSIC BOX JAPAN picture


Vintage Kehlsteinhaus Bavaria Germany Colorscope Cow Bell View Master Music Box
$8.99
Vintage Kehlsteinhaus Bavaria Germany Colorscope Cow Bell View Master Music Box picture


VINTAGE SCHMIDT Signed Collectible Musical Turning Clown
$9.99
VINTAGE  SCHMIDT Signed Collectible Musical Turning Clown picture


Vintage - Linen - Postcard - Stage - Radio City Music Hall - New York City
$3.75
Vintage - Linen - Postcard - Stage - Radio City Music Hall - New York City   picture