Your One-Stop Source For
Music Lyrics
Bass and Guitar Tabs
and More...
Music Lyrics Bass and Guitar Tabs

 

The Tabs Are Below

Learn To Read Tab
Chords Handbook
Corrections & Additions
Get Official Tab
U2 tabs @ 911Tabs

 

If God Will Send His Angels

U2

 

 

Tune 1/2 step down--in G major.

 

intro, with phaser and autowah:

1---3------6--8---

2---2------6--8---

3---0------7--9---

4-----------------

5-----------------

6-----------------

 

1---3---------------------------

2-----------0----------------0--

3-------------------0-----------

4-------------------------------

5-------------------------------

6-------------------------------

 

Nobody else here baby

No one else here to blame

No one to point the finger

It's just you and me and the rain

 

1---14------12----------

2-------------------15--

3-----------------------

4-----------------------

5-----------------------

6-----------------------

 

Nobody made you do it, no one put words in your mouth

Nobody here taking orders when love took a train heading south

It's the blind leading the blond

It's the stuff, the stuff of country songs

If GOD will send His angels

And if GOD will send a sign

And if GOD will send His angels

Would everything be alright?

 

with delay (Edge improvises the second set of notes):

1--------------------------------------

2---8-(8)--10-(10)------10--12--8-(8)--

3--------------------------------------

4--------------------------------------

5--------------------------------------

6--------------------------------------

 

GOD has got His phone off the hook, babe

Would He even pick up if He could?

It's been a while since we saw that child

Hangin' 'round this neighbourhood

See His mother dealing in a doorway

See Father Christmas with a begging bowl

Jesus sister's eyes are a blister

The high street never looked so low

 

1-------7-------7-------------7-----------------7------

2---7-------7------------7---------7--8--10---------7--

3-------------------0----------------------------------

4------------------------------------------------------

5------------------------------------------------------

6------------------------------------------------------

 

It's the blind leading the blond

It's the cops collecting for the cons

 

1----------------10---------

2---------8--------------8--

3---7-----------------------

4---------------------------

5---------------------------

6---------------------------

 

So where is the hope?

 

1-------------8-----------------7--

2--------8----------------8--------

3---7----------------7-------------

4----------------------------------

5----------------------------------

6----------------------------------

 

And where is the faith?

And the love?

What's that you say to me?

Does love light up your Christmas Tree?

 

1------------------

2---8---7----------

3-----------7---7--

4------------------

5------------------

6------------------

 

The next minute you're blowing a fuse

And the cartoon network turns into the news

If GOD will send His angels

And if GOD will send a sign

Well if GOD will send His angels

 

D G5

Where do we go?

 

1-------------------------------

2--------8---7----------8----7--

3---7--------------7------------

4-------------------------------

5-------------------------------

6-------------------------------

 

Jesus never let me down you know

Jesus used to show me the score

Then they put Jesus in show business

Now it's hard to get in the door

It's the stuff, it's the stuff of country songs

But I guess it was something to go on

If GOD will send His angels

I sure could use them here right now

Well if GOD will send His angels

Where do we go?

 

Return to my to my U2 tabs page

The Tablature is Copyright its respective owners.

Sign Up For My Newsletter
Subscribe | Unsubscribe

Site Map | Disclaimer | Privacy Policy | Media Kit | Submissions/Corrections

Website © 2000-2014 mattsmusicpage.com. All rights reserved.

Legal & DMCA: Matt's Music Page has been providing lyrics and tabs in a legal way, paying royalties each year to a few organizations. Then, all lyrics and tabs were removed from the site. Now, there's a new owner to the site, which purchased it August 26, 2014, and he is in negotiation to obtain licensing from BMI at the moment. If you have a specific DMCA request -- please do not hesitate to contact me via the contact button on top. I will do my very best to keep this site fully legal.

Get our toolbar!