Your One-Stop Source For
Music Lyrics
Bass and Guitar Tabs
and More...
Music Lyrics Bass and Guitar Tabs

 

The Tabs Are Below

Learn To Read Tab
Chords Handbook
Corrections & Additions
Get Official Tab
U2 tabs @ 911Tabs

 

The Fly

U2

 

 

Intro goes like this:

 

E-------------------|-------------------|

B-------------------|-------------------|

G-------------------|-------------------|

D-------------------|-------------------|

A---7-7-5-7-5-7-7-5-|---7-7-5-7-5-7-7-5-|

E-0------h---h------|-0------h---h------|

 

E

It's no secret that the stars are falling from the sky

It's no secret that our world is in darkness tonight

A D

They say the sun is sometimes eclipsed by a moon

E

You know I don't see you when she walks in the room

 

It's no secret that a friend is someone who lets you help

It's no secret that a liar won't believe anyone else

They say a secret is something you tell one other person

So I'm telling you, child

 

C#m E

(Love, we shine like a A man will beg

A

Burning star A man will crawl

We're fallin' from On the sheer face of love

C#m E A Like a fly from the wall

The sky... tonight) It's no secret at all

 

It's no secret that a conscience can sometimes be a pest

It's no secret that ambition bites the nails of success

Every artist is a cannibal Every poet is a thief

All kill their inspiration and sing about their grief

 

Solo: B E-A-D-E-B-C#m-E-A

 

 

E-15--14--10-12|(HOLD)---|-15--14--10-12--10-- 7----|---|--15--14--10--12-|

 

E-15-14-10--9-10-9-|-7-9-7-5-7-5-3-5|-3-1-3-1-0-1---0-|-5--4--1--0-|

B-----------------------|--------------------|---------------3----|----|

 

E -5--4-1-3-7-|--9----|---9---|--9-7-7-5-7-5-4-5|-4-2-4-2-0-0-0|-2--4--2--0--2|

 

E -4-2-0-2-4-2-2-0-2-2-4-4-5-4-5-7-7-9-9-11-11-12-11-12-16--|

 

(Love, we shine like a A man will rise

Burning star A man will fall

We're falling from From the sheer face of love

The sky... tonight) Like a fly from the wall

It's no secret at all

E

It's no secret that the stars are falling from the sky

The universe exploding 'cosa one man's lie

Look I gotta go, yeah I'm running out of change

There's a lot of things if I could I'd rearrange

 

E |-------15-15-|-15--17--14--15--17---12--12-|-12--14--10--12--14--10--

 

E -15--15-|--15-17-14-15-17---12-12-|--12--14-10--12--14--10--15-15-|

 

E |--15--17--15--17--15--14--10--12--|-(12)-----12------------------------|

B|------------------------------------------|-------12-----12--10--12-----12--|

G|------------------------------------------|-----------------------------12------|

 

E|---------------|---------------|

B|--12----------|---------------|

G|--------9-----|--(9)----------

 

Return to my to my U2 tabs page

The Tablature is Copyright its respective owners.

Sign Up For My Newsletter
Subscribe | Unsubscribe

Site Map | Disclaimer | Privacy Policy | Media Kit | Submissions/Corrections

Website © 2000-2014 mattsmusicpage.com. All rights reserved.

Legal & DMCA: Matt's Music Page has been providing lyrics and tabs in a legal way, paying royalties each year to a few organizations. Then, all lyrics and tabs were removed from the site. Now, there's a new owner to the site, which purchased it August 26, 2014, and he is in negotiation to obtain licensing from BMI at the moment. If you have a specific DMCA request -- please do not hesitate to contact me via the contact button on top. I will do my very best to keep this site fully legal.

Get our toolbar!

 

VINTAGE SORRENTO MUSIC JEWELRY BOX
$45.0
VINTAGE SORRENTO MUSIC JEWELRY BOX picture


VINTAGE LACQUERED MUSIC BOX JAPAN
$25.99
VINTAGE LACQUERED MUSIC BOX JAPAN picture


Vintage Kehlsteinhaus Bavaria Germany Colorscope Cow Bell View Master Music Box
$8.99
Vintage Kehlsteinhaus Bavaria Germany Colorscope Cow Bell View Master Music Box picture


VINTAGE SCHMIDT Signed Collectible Musical Turning Clown
$9.99
VINTAGE  SCHMIDT Signed Collectible Musical Turning Clown picture


Vintage - Linen - Postcard - Stage - Radio City Music Hall - New York City
$3.75
Vintage - Linen - Postcard - Stage - Radio City Music Hall - New York City   picture