Your One-Stop Source For
Music Lyrics
Bass and Guitar Tabs
and More...
Music Lyrics Bass and Guitar Tabs

 

The Tabs Are Below

Learn To Read Tab
Chords Handbook
Corrections & Additions
Get Official Tab
U2 tabs @ 911Tabs

 

The Electric Co.

U2

 

 

(tuned down 1/2 step)

------------------------------------------------------------------------

-12--12--12--12--------------------------------------------------play---

-11--11--11--9---------------------------------------------------this---

-9---9---9---9-------2*-------9---9---9---9---9---9---9--9---wholething

---------------------------------------------------------------3times -

Somebody Cry ..... ...Cry

 

 

|----------------|-----------------|-----------------|-----------------|

|----------------|-----------------|-----------------|-----------------|

|2-----5-----4---|---9-----11--7---|-2-----5-----4---|---12--14--11----|

|0-0-0-0-0-0-0-0-|-0-0-0-0-0-0-0-0-|-0-0-0-0-0-0-0-0-|-0-0-0-0-0-0-0-0-|

|----------------|-----------------|-----------------|-----------------|

|----------------|-----------------|-----------------|-----------------|

Edge mutes the strings with his palm

 

 

 

|----------------|-----------------|-----------------|-------3---------|

|----------------|-----------------|-----------------|-------3---------|

|2-----5-----4---|---9-----11--7---|-2-----5-----4---|-------0---------|

|0-0-0-0-0-0-0-0-|-0-0-0-0-0-0-0-0-|-0-0-0-0-0-0-0---|-------0---------|

|----------------|-----------------|-----------------|-----------------|

|----------------|-----------------|-----------------|-----------------|

 

 

|--3------3------|--2---3----2-----|--0---2-----0----|---3-------3-----|

|--3------3------|--3---3----3-----|--3---3-----3----|---3-------3-----|

|--0------0------|--2---2----2-----|--2---2-----2----|---0-------0-----|

|--0------0------|--0---0----0-----|--0---0-----0----|---0-------0-----|

|----------------|-----------------|-----------------|-----------------|

|----------------|-----------------|-----------------|-----------------|

 

 

|--2---3---2-----|---2-------2-----|--2---x--x--x--3-|

|--3---3---3-----|---3-------3-----|--3---x--x--x--3-|

|--2---2---2-----|---2-------2-----|--2---x--x--x--2-|

|--0---0---0-----|---0-------0-----|--0---x--x--x--0-|

|----------------|-----------------|-----------------|

|----------------|-----------------|-----------------|

 

|--2--x--x--x--0-|--2--x--x--x--3--|--2--x--x--x--0--|--2--x--2--2--3--|

|--3--x--x--x--3-|--3--x--x--x--3--|--3--x--x--x--3--|--3--x--3--3--3--|

|--2--x--x--x--2-|--2--x--x--x--2--|--2--x--x--x--2--|--2--x--2--2--2--|

|--0--x--x--x--0-|--0--x--x--x--0--|--0--x--x--x--0--|--0--x--0--0--0--|

|----------------|-----------------|-----------------|-----------------|

|----------------|-----------------|-----------------|-----------------|

 

Boy

 

 

 

|--2------x--2--0--0-------|---15-----------------|

|--3------x--3--3--3-------|----------15----------|

|--2------x--2--2--2-------|------------------14--|

|--0------x--0--0--0-------|-----------------------|

|--------------------------|-----------------------|

|--------------------------|-----------------------|

 

Stupid boy You don’t sit at the table......

 

|----14---------|-2-----x--2--2---3----|--2------x--2--0--0-------|---15------------------|

|-------15------|-3-----x--3--3---3----|--3------x--3--3--3-------|------------15---------|

|------------14-|-2-----x--2--2---2----|--2------x--2--2--2-------|--------------------14-|

|---------------|-0-----x--0--0---0----|--0------x--0--0--0-------|-----------------------|

|---------------|----------------------|--------------------------|-----------------------|

|---------------|----------------------|--------------------------|-----------------------|

 

until your able to toy broken toy You shout and shout......

 

|----14---------|--0--------------|--3-----------------------|--2---3---2--0--2-|

|-------15------|--1--------------|--3-----------------------|--3---3---3--3--3-|

|------------14-|--0--------------|--0-----------------------|--2---2---2--2--3-|

|---------------|--2--------------|--0-----------------------|--0---0---0--0--0-|

|---------------|--3--------------|--2-----------------------|------------------|

|---------------|-----------------|--3-----------------------|------------------|

 

You’re inside out If you dont know Electric co

 

 

|--0---------------------|--3------------------------|--2--3--2--0--2---|

|--1---------------------|--3------------------------|--3--3--3--3--3---|

|--0---------------------|--0------------------------|--2--2--2--2--2---|

|--2---------------------|--0------------------------|--0--0--0--0--0---|

|--3---------------------|--2------------------------|------------------|

|------------------------|--3------------------------|------------------|

If you dont..... Electric co

 

 

|--2----x--x--x--3---|--2---x--x--x---0--|--2---x--x--x--3----|---2----x--x--x--0----|

|--3----x--x--x--3---|--3---x--x--x---3--|--3---x--x--x--3----|---3----x--x--x--3----|

|--2----x--x--x--2---|--2---x--x--x---2--|--2---x--x--x--2----|---2----x--x--x--2----|

|--0----x--x--x--0---|--0---x--x--x---0--|--0---x--x--x--0----|---0----x--x--x--0----|

|--------------------|-------------------|--------------------|----------------------|

|--------------------|-------------------|--------------------|----------------------|

 

 

|--2--x--2--2--3--|--2------x--2--0--0-------|---15-----------------|

|--3--x--3--3--3--|--3------x--3--3--3-------|----------15----------|

|--2--x--2--2--2--|--2------x--2--2--2-------|------------------14--|

|--0--x--0--0--0--|--0------x--0--0--0-------|----------------------|

|-----------------|--------------------------|----------------------|

|-----------------|--------------------------|----------------------|

 

Red Running red Play for real

 

|----14--------|-2-----x--2--2---3----|--2------x--2--0--0-------|---15------------------|

|-------15-----|-3-----x--3--3---3----|--3------x--3--3--3-------|------------15---------|

|-----------14-|-2-----x--2--2---2----|--2------x--2--2--2-------|--------------------14-|

|--------------|-0-----x--0--0---0----|--0------x--0--0--0-------|-----------------------|

|--------------|----------------------|--------------------------|-----------------------|

|--------------|----------------------|--------------------------|-----------------------|

 

The toy can feel Hole In your head You dont shout

 

|----14------------|--0----------------|--3----------------------|--2-------3-------2-----|

|-------15---------|--1----------------|--3----------------------|--3-------3-------3-----|

|---------------14-|--0----------------|--0----------------------|--2-------2-------2-----|

|------------------|--2----------------|--0----------------------|--0-------0-------0-----|

|------------------|--3----------------|--2----------------------|------------------------|

|------------------|-------------------|--3----------------------|------------------------|

 

You’re spoon fed If you dont know Electric co

 

 

|--0---------------------|--3------------------------|--2--3--2--0--2-|

|--1---------------------|--3------------------------|--3--3--3--3--3-|

|--0---------------------|--0------------------------|--2--2--2--2--2-|

|--2---------------------|--0------------------------|--0--0--0--0--0-|

|--3---------------------|--2------------------------|----------------|

|------------------------|--3------------------------|----------------|

 

If you dont..... Electric co

 

|----------------|-----------------|-----------------|-----------------|

|----------------|-----------------|-----------------|-----------------|

|2-----5-----4---|---9-----11--7---|-2-----5-----4---|---12--14--11----|

|0-0-0-0-0-0-0-0-|-0-0-0-0-0-0-0-0-|-0-0-0-0-0-0-0-0-|-0-0-0-0-0-0-0-0-|

|----------------|-----------------|-----------------|-----------------|

|----------------|-----------------|-----------------|-----------------|

 

 

|----------------|-----------------|-----------------|-----------------|

|----------------|-----------------|-----------------|-----------------|

|2-----5-----4---|---9-----11--7---|-2-----5-----4---|-----------------|

|0-0-0-0-0-0-0-0-|-0-0-0-0-0-0-0-0-|-0-0-0-0-0-0-0---|-----------------|

|----------------|-----------------|-----------------|-----------------|

|----------------|-----------------|-----------------|-----------------|

 

harmonics

|---7--------------------|---7-----------------------|-----7------------------------|

|---9--------------------|---9-----------------------|-----9----------------(12)----|

|---9--------------------|---9-----------------------|-----9----------------(12)----|

|---9--------------------|---9-----------------------|-----9----------------(12)----|

|---7--------------------|---7-----------------------|-----7------------------------|

|---7--------------------|---7-----------------------|-----7------------------------|

 

 

|---7--------------------|---7-----------------------|-------------------------(7)---|

|---9--------------------|---9-----------------------|-----(12)--------(7)-----(7)---|

|---9--------------------|---9-----------------------|-----(12)--------(7)-----------|

|---9--------------------|---9-----------------------|-----(12)--------(7)-----------|

|---7--------------------|---7-----------------------|-------------------------------|

|---7--------------------|---7-----------------------|-------------------------------|

 

|---------------------|----------------------|----------------------------|

|---------------------|----------------------|----------------------------| Ad lib here with

|---/7--7-7-7-7-7-7-7-|-7-7-7-7-7-7-7-7-7-7-7|-7-7-7-7-7-7-7-7-7-7-7-7/---| harmonics and

|---------------------|----------------------|----------------------------| bends

|---------------------|----------------------|----------------------------|

|---------------------|----------------------|----------------------------|

 

SOLO

 

|----------------------------------------------------------------------------------|

|-----------15---------------15----------15----------15----------15----------15----|

|--17-17-16-----16--17-17-16----16-17-16----16-17-16----16-17-16----16-17-16----16-|

|----------------------------------------------------------------------------------|

|----------------------------------------------------------------------------------|

|----------------------------------------------------------------------------------|

 

 

 

|--------------------------------|----------------------------------|

|-16/17-16-14-12-11-12-9/10-7-2--|-16/17-16-14-12-11-12-9/10-7-2----|

|----------------------0---------|-----------------------------0----|

|--------------------------------|----------------------------------|

|--------------------------------|----------------------------------|

|--------------------------------|----------------------------------|

 

 

|-----------------------------|-------------------------------|---------------------------|

|-----------------------------|-------------------------------|---------------------------|

|-----2------4------5------7--|-----2-------4-----5----7------|-----------muted by palm---|

|--0-------0------0-----0-----|--0--------0----0----0---------|-0-0-0-0-0-0-0-0-0-0-0-0-0-|

|-----------------------------|-------------------------------|---------------------------|

|-----------------------------|-------------------------------|---------------------------|

 

 

|-------15----------14----------15----------14------|

|-x-x-x----15-x-x-x----13-x-x-x---15--x-x-x----13---|

|---------------------------------------------------|

|---------------------------------------------------|

|---------------------------------------------------|

|---------------------------------------------------|

 

 

|----15--------14--------15--------14------|---15-----14----15----14-----15-|

|--------15---------13--------15--------13-|------15-----13----15----13--13-|

|------------------------------------------|--------------------------------|

|------------------------------------------|--------------------------------|

|------------------------------------------|--------------------------------|

|------------------------------------------|--------------------------------|

 

 

|--0-------------------------|--3-------------------|--2--3-2-0-2---|

|--1-------------------------|--3-------------------|--3--3-3-3-3---|

|--0-------------------------|--0-------------------|--2--2-2-2-2---|

|--2-------------------------|--0-------------------|--0--0-0-0-0---|

|--3-------------------------|--2-------------------|---------------|

|----------------------------|--3-------------------|---------------|

 

If you dont know Electric co

 

 

|--0---------------------|--3------------------------|--2--3--2--0--2-|

|--1---------------------|--3------------------------|--3--3--3--3--3-|

|--0---------------------|--0------------------------|--2--2--2--2--2-|

|--2---------------------|--0------------------------|--0--0--0--0--0-|

|--3---------------------|--2------------------------|----------------|

|------------------------|--3------------------------|----------------|

If you dont..... Electric co

 

 

Repeat above how ever many times

 

|----------------|-----------------|-----------------|-----------------|

|----------------|-----------------|-----------------|-----------------|

|2-----5-----4---|---9-----11--7---|-2-----5-----4---|---12--14--11----|

|0-0-0-0-0-0-0-0-|-0-0-0-0-0-0-0-0-|-0-0-0-0-0-0-0-0-|-0-0-0-0-0-0-0-0-|

|----------------|-----------------|-----------------|-----------------|

|----------------|-----------------|-----------------|-----------------|

 

 

|----------------|-----------------|-----------------|-----------------|

|----------------|-----------------|-----------------|-----------------|

|2-----5-----4---|---9-----11--7---|-2-----5-----4---|-----------------|

|0-0-0-0-0-0-0-0-|-0-0-0-0-0-0-0-0-|-0-0-0-0-0-0-0---|-----------------|

|----------------|-----------------|-----------------|-----------------|

|----------------|-----------------|-----------------|-----------------|

 

 

|--2-------2-----2----|--2---2-----2------|--3----3----3------|---3--------3-----5----3---|

|--3-------3-----3----|--3---3-----3------|--3----3----3------|---3--------3-----3----3---|

|--2-------2-----2----|--2---2-----2------|--2----2----2------|---2--------2-----2----2---|

|--0-------0-----0----|--0---0-----0------|--0----0----0------|---0--------0-----0----0---|

|---------------------|-------------------|-------------------|---------------------------|

|---------------------|-------------------|-------------------|---------------------------|

 

or

 

|--5------------------|--5----------------|-5-----------------|---5-------5-----5---3---|

|--7------------------|--7----------------|-8-----------------|---8-------8-----6---4---|

|--7------------------|--7----------------|-7-----------------|---7-------7-----7---5---|

|--7------------------|--7----------------|-7-----------------|---7-------7-----7---5---|

|--5------------------|--5----------------|-5-----------------|---5-------5-----5---3---|

|--5------------------|--5----------------|-5-----------------|---5-------5-----5---3---|

 

Fade till end

 

Return to my to my U2 tabs page

The Tablature is Copyright its respective owners.

Sign Up For My Newsletter
Subscribe | Unsubscribe

Site Map | Disclaimer | Privacy Policy | Media Kit | Submissions/Corrections

Website © 2000-2014 mattsmusicpage.com. All rights reserved.

Legal & DMCA: Matt's Music Page has been providing lyrics and tabs in a legal way, paying royalties each year to a few organizations. Then, all lyrics and tabs were removed from the site. Now, there's a new owner to the site, which purchased it August 26, 2014, and he is in negotiation to obtain licensing from BMI at the moment. If you have a specific DMCA request -- please do not hesitate to contact me via the contact button on top. I will do my very best to keep this site fully legal.

Get our toolbar!

 

BRAND NEW KEY OF C HOHNER MINI HARMONICA HARP KEYRING KEYCHAIN KEY RING CHAIN
$8.21
BRAND NEW KEY OF C HOHNER MINI HARMONICA HARP KEYRING KEYCHAIN KEY RING CHAIN picture


RISING SONS BAND *2X3 FRIDGE MAGNET* VOCALS GUITAR MANDOLIN DOBRO HARMONICA SONG
$3.99
RISING SONS BAND *2X3 FRIDGE MAGNET* VOCALS GUITAR MANDOLIN DOBRO HARMONICA SONG picture


Vtg Christmas Angel Baby Girl W Harmonica Boy W Book SET OF 2 W GOLD WINGS
$125.0
Vtg Christmas Angel Baby Girl W Harmonica Boy W Book SET OF 2 W GOLD WINGS  picture


Beautiful Hand Carved Jewelry Trinket Jewelry Box Harmonica Case Bone And Brass
$14.5
Beautiful Hand Carved Jewelry Trinket Jewelry Box Harmonica Case Bone And Brass picture


BRAND NEW* HOHNER BOB DYLAN SIGNATURE LIMITED EDITION HARMONICA COLLECTORS ITEM
$140.19
BRAND NEW* HOHNER BOB DYLAN SIGNATURE LIMITED EDITION HARMONICA COLLECTORS ITEM picture