Your One-Stop Source For
Music Lyrics
Bass and Guitar Tabs
and More...
Music Lyrics Bass and Guitar Tabs

 

The Tabs Are Below

Learn To Read Tab
Chords Handbook
Corrections & Additions
Get Official Tab
U2 tabs @ 911Tabs

 

Discotheque

U2

 

 

The INTRO goes something like this:

 

e|---------------------------------------------------------------------------|

B|---------------------------------------------------------------------------|

G|---------------------------------------------------------------------------|

D|---------------------------------------------------------------------------|

A|---------------------------------------------------------------------------|

E|----7-7-5h7-5h7-7-5h7-5h7-7-5h7--------------------------------------------|

 

 

In the album version the intro goes:

e|---------------------------------------------------------------------------|

B|---------------------------------------------------------------------------|

G|---------------------------------------------------------------------------|

D|---------------------------------------------------------------------------|

A|-------------5---------5---------------------------------------------------|

E|----7-7-5h7-5-7-7-5h7-5-7-7-5h7--------------------------------------------|

 

Use distortion. You can also play the intro with delay (500ms, few repeats).

 

 

MAIN RIFF:

e|-------------------------------------------|

B|-------------------------------------------|

G|-------------------------------------------|

D|-------------------------------------------|

A|---5----------7---------5------------------|

E|-----7--5h7-----7--5h7------7--7--7--5h7---|

 

 

RIFF1:

 

Use wah-wah. Just play around with this

e|-------------------------|

B|-------------------------|

G|-------------------------| or something like that

D|--9--------7--9----------|

A|-------7h9-------7-------|

E|----7---------------7----|

 

RIFF2: (Transcribed by Brandon Leniart)

e|---------------------------------------------------------------------------|

B|---------------------------------------------------------------------------|

G|-9b(11)r--7------7--7\4--4--4/9-----9b(11)r--7------7--7\4--4--4/9---------|

D|-------------9----------------------------------9--------------------------|

A|---------------------------------------------------------------------------|

E|---------------------------------------------------------------------------|

 

RIFF3:

Use delay (500ms, few repeats).

e|------------7------------------7------------------7------------------7-----|

B|-------7-10---10-7--------7-10---10-7--------9-10---10-9--------9-10---10-7|

G|-----7------------------7------------------7------------------7------------|

D|---9------------------9------------------9------------------9--------------|

A|---------------------------------------7------------------7----------------|

E|-7------------------7------------------------------------------------------|

 

 

RIFF4:

Use delay

e|--------7---------7----------7---------7-----|

B|---------------------------------------------|

G|-----7---------7----------7---------7--------|

D|--9---------9---------9----------9-----------|

A|---------------------------------------------|

E|---------------------------------------------|

 

 

And now all together:

 

(INTRO)

You can reach

But you can't grab it

You can hold it, control it, oh no

You can't bag it

 

You can push

But you can't direct it

Circulate, regulate, oh no

You cannot connect it

 

(RIFF1)

You know you're chewing bubblegum

You know what that is but you still want some

You just can't get enough of that lovie dovie stuff

 

(MAIN RIFF)

You get confused

But you know it

Yeah you hurt for it, work for it, love

You don't always show it

 

Let go, let go

(MAIN RIFF)

Discotheque

Let's go, go

(MAIN RIFF)

Discotheque

 

(RIFF2)

Looking for the one

But you know you're somewhere else instead

You wanna be the song

Be the song that you hear in your head

 

(RIFF3)

 

(MAIN RIFF)

It's no trick

'Cause you can't learn it

It's the way you don't pay, that's okay

'Cause you can't earn it

 

(RIFF1)

You know you're chewing bubblegum

You know what that is but you still want some

You just can't get enough of that lovie dovie stuff

 

Let's go, let's go

(MAIN RIFF)

Discotheque

Go go, go

(MAIN RIFF)

Discotheque

 

(RIFF2)

Looking for the one

But you know you're somewhere else instead

You wanna be the song

Be the song that you hear in your head

 

(RIFF3)

 

Love

You want heaven in your heart

Heaven in your heart

The sun, the moon, the stars

 

But you take what you can get

'Cause it's all that you can find

Oh you know there's something more

Tonight, tonight, tonight

 

(RIFF4)

Boom cha

Boom cha

Discotheque

 

Boom cha (I can't get

Boom cha I can't

Discotheque Not enough)

 

Boom cha

Boom cha

Discotheque

 

(INTRO)

 

Return to my to my U2 tabs page

The Tablature is Copyright its respective owners.

Sign Up For My Newsletter
Subscribe | Unsubscribe

Site Map | Disclaimer | Privacy Policy | Media Kit | Submissions/Corrections

Website © 2000-2014 mattsmusicpage.com. All rights reserved.

Legal & DMCA: Matt's Music Page has been providing lyrics and tabs in a legal way, paying royalties each year to a few organizations. Then, all lyrics and tabs were removed from the site. Now, there's a new owner to the site, which purchased it August 26, 2014, and he is in negotiation to obtain licensing from BMI at the moment. If you have a specific DMCA request -- please do not hesitate to contact me via the contact button on top. I will do my very best to keep this site fully legal.

Get our toolbar!

 

Starbucks You Are Here Coffee Mug/Cup KENTUCKY - Horses, Banjo, Blue, White
$19.99
Starbucks You Are Here Coffee Mug/Cup KENTUCKY - Horses, Banjo, Blue, White picture


KNOWLES ROCKWELL HERITAGE "THE BANJO PLAYER" FIRST EDITION 1989 PLATE COA
$5.99
KNOWLES ROCKWELL HERITAGE


Vintage Postcard 1981 Disney World Banjo Kings Main Street USA 1981 Postmark
$4.99
 Vintage Postcard 1981 Disney World Banjo Kings Main Street USA 1981 Postmark picture


Banjo Barometer With Thermometer Hygrometer 490mm
$84.76
Banjo Barometer With Thermometer Hygrometer 490mm picture


ANTIQUE JAPANESE NIPPON FIGURINE SET OF 3 WOMEN GEISHA PLAYING DRUM BANJO FAN
$24.0
ANTIQUE JAPANESE NIPPON FIGURINE SET OF 3 WOMEN GEISHA PLAYING DRUM BANJO FAN picture