Your One-Stop Source For
Music Lyrics
Bass and Guitar Tabs
and More...
Music Lyrics Bass and Guitar Tabs

 

The Tabs Are Below

Learn To Read Tab
Chords Handbook
Corrections & Additions
Get Official Tab
U2 tabs @ 911Tabs

 

Dirty Day

U2

 

 

Tune down 1/2 step, it's in A major.

 

1---------------------------

2---------------------------

3---------------------------

4---------------------------

5---------------------------

6---10--10\5----5--8--8\3---

 

or

 

1--------------------------

2--------------------------

3--------------------------

4--------------------------

5---5--5---------3--3------

6----------5------------3--

 

I don't know you, and you don't know the half of it

I had a staring role, I was the bad guy who walked out

They say be careful where you aim, cuz where you aim you just might hit

You can hold on to something so tight, you've already lost it

Dragging me down, that's not the way it used to be

 

(slow bend)

1------------

2---7b8r--5--

3------------

4------------

5------------

6------------

 

You can't even remember what I'm trying to forget

 

1----------------------------

2---7b8r--5---------5b6r--3--

3----------------------------

4----------------------------

5----------------------------

6----------------------------

 

(loud distorted part, with some wah)

1-------------------------

2-------------------------

3---11b12r--9---9b10r--7--

4---11b12r--9---9b10r--7--

5-------------------------

6-------------------------

 

It was a dirty day, dirty day

If you're looking for explanations, I don't even understand

If need someone to blame

Throw a rock in the air, you'll hit someone guilty

A E F#m D

From father to son, in one life has begun

F#m Dsus2 A5

A work that's never done, from father to son

Love, it won't last kissing time

Get it right, there's no blood thicker than ink

Hear what I say, nothing's a simple as you think

Wake up, some things you can't get around

I'm in you more so when they put me in the ground

Those days, days, days, run away like horses over the hill

 

Return to my to my U2 tabs page

The Tablature is Copyright its respective owners.

Sign Up For My Newsletter
Subscribe | Unsubscribe

Site Map | Disclaimer | Privacy Policy | Media Kit | Submissions/Corrections

Website © 2000-2014 mattsmusicpage.com. All rights reserved.

Legal & DMCA: Matt's Music Page has been providing lyrics and tabs in a legal way, paying royalties each year to a few organizations. Then, all lyrics and tabs were removed from the site. Now, there's a new owner to the site, which purchased it August 26, 2014, and he is in negotiation to obtain licensing from BMI at the moment. If you have a specific DMCA request -- please do not hesitate to contact me via the contact button on top. I will do my very best to keep this site fully legal.

Get our toolbar!