Your One-Stop Source For
Music Lyrics
Bass and Guitar Tabs
and More...
Music Lyrics Bass and Guitar Tabs

 

The Tabs Are Below

Learn To Read Tab
Chords Handbook
Corrections & Additions
Get Official Tab
U2 tabs @ 911Tabs

 

Bullet The Blue Sky

U2

 

 

Main riff Small riff (used live)

E-|-----------------------------------|---------------------------------------|

B-|-----7--------------------7---7----|---------------------------------------|

G-|-----7--------------------7---7----|------11--11---10--9-------------------|

D-|-----7--------------------7---7----|---------------------------------------|

A-|---------7--7--5h7-5h7-------------|---------------------------------------|

E-|-----------------------------------|---------------------------------------|

 

Solo (Joshua Tree version) (From memory, so it might not be 100%)

E-|---------------------------------------------------------------------------|

B-|----12------------12-------------12/14-----------14------------------------|

G-|--------12------------12----------------14-----------14--------------------|

D-|------------12------------12----------------14-----------14----------------|

A-|---------------------------------------------------------------------------|

E-|---------------------------------------------------------------------------|

(Maybe repeat one more time on the 12th fret... dunno.. check the

record!)

 

 

Intro (w/slide), slow slide all the way down the fretboard

E-|--12\----------------------------------------------------------------------|

B-|--12\----------------------------------------------------------------------|

G-|--12\----------------------------------------------------------------------|

D-|--12\----------------------------------------------------------------------|

A-|--12\----------------------------------------------------------------------|

E-|--12\----------------------------------------------------------------------|

 

Return to my to my U2 tabs page

The Tablature is Copyright its respective owners.

Sign Up For My Newsletter
Subscribe | Unsubscribe

Site Map | Disclaimer | Privacy Policy | Media Kit | Submissions/Corrections

Website © 2000-2014 mattsmusicpage.com. All rights reserved.

Legal & DMCA: Matt's Music Page has been providing lyrics and tabs in a legal way, paying royalties each year to a few organizations. Then, all lyrics and tabs were removed from the site. Now, there's a new owner to the site, which purchased it August 26, 2014, and he is in negotiation to obtain licensing from BMI at the moment. If you have a specific DMCA request -- please do not hesitate to contact me via the contact button on top. I will do my very best to keep this site fully legal.

Get our toolbar!

 

VINTAGE SORRENTO MUSIC JEWELRY BOX
$45.0
VINTAGE SORRENTO MUSIC JEWELRY BOX picture


VINTAGE LACQUERED MUSIC BOX JAPAN
$25.99
VINTAGE LACQUERED MUSIC BOX JAPAN picture


Vintage Kehlsteinhaus Bavaria Germany Colorscope Cow Bell View Master Music Box
$8.99
Vintage Kehlsteinhaus Bavaria Germany Colorscope Cow Bell View Master Music Box picture


VINTAGE SCHMIDT Signed Collectible Musical Turning Clown
$9.99
VINTAGE  SCHMIDT Signed Collectible Musical Turning Clown picture


Vintage - Linen - Postcard - Stage - Radio City Music Hall - New York City
$3.75
Vintage - Linen - Postcard - Stage - Radio City Music Hall - New York City   picture