Your One-Stop Source For
Music Lyrics
Bass and Guitar Tabs
and More...
Music Lyrics Bass and Guitar Tabs

 

The Tabs Are Below

Learn To Read Tab
Chords Handbook
Corrections & Additions
Get Official Tab
U2 tabs @ 911Tabs

 

U2 "Silver and Gold" - BASS TAB

-------------------------------

steve palmer am560@freenet.carleton.ca

 

 

As far as I know, this is the only bass part in the whole song:

 

E A

|------------------------|

|------5-7--7------------|

|-7--7--------7--7-------|

|------------------5-7---|

 

 

Silver & Gold

U2- Rattle and Hum

Adam Clayton

from: Nick Wood <leahcim@azstarnet.com>

 

 

intro

G----------------------------------------------0---2-----------------|

D------------------------------------2-2-------------0--2-2--------0-.

A-----------------------------------------0----------------0-3--0----.

0---0---0---0---0---0...0--------------------------------------------|

q w

(p.m.)

 

 

 

intro

G---------------------------------------------------------------------

D---------------------------------------------------------------------

A-------------5-5-5--3--0--0-------5--5--3---1-1--3---5--5--3---1-1--3

E----0---0------------------------------------------------------------

 

Improvise as you like on the main bit... Bob, Jimi, and Adam would

appreciate it.

 

 

 

 

Here's the real thing:

 

For the opening

E-------------------------------------------------

A-6---6---6---6---6---6---6---6---6---6---6---6---and on and on until...

D-------------------------------------------------

G-------------------------------------------------

If ya wanna way out.........SILVER AND

E------------6-------------------6--6--//----------6----------------6--6----

A--6---6----------------6--6-----4--4--//---6---6-------------6--6---4--4---

D--------------4-6--4------------------//------------4-6--4-----------------

G--------------------------------------//-----------------------------------

this is basically all you play, the ending to the verse goes like this

E------------------------------------------------------------

A----6>------------------------------------------------------

D----------------6->-------------8->----------------6->------

G------------------------------------------------------------

 

 

BRYAN

FREEat420@aol.com

 

Return to my to my U2 bass tabs page

The Tablature is Copyright its respective owners.

Sign Up For My Newsletter
Subscribe | Unsubscribe

Site Map | Disclaimer | Privacy Policy | Media Kit | Submissions/Corrections

Website © 2000-2014 mattsmusicpage.com. All rights reserved.

Legal & DMCA: Matt's Music Page has been providing lyrics and tabs in a legal way, paying royalties each year to a few organizations. Then, all lyrics and tabs were removed from the site. Now, there's a new owner to the site, which purchased it August 26, 2014, and he is in negotiation to obtain licensing from BMI at the moment. If you have a specific DMCA request -- please do not hesitate to contact me via the contact button on top. I will do my very best to keep this site fully legal.

Get our toolbar!