Your One-Stop Source For
Music Lyrics
Bass and Guitar Tabs
and More...
>Music Lyrics Bass and Guitar Tabs

 

The Tabs Are Below

Learn To Read Tab
Chords Handbook
Corrections & Additions
Get Official Tab
U2 tabs @ 911Tabs

 

From: viking@powerup.com.au (David Taylor)

To: dwm3@po.cwru.edu

Subject: bass tab: u2: pride(in the name of love)

Date: Tue, 10 Dec

 

 

U2 - "Pride(In the Name of Love)" - Bass Tab

 

Intro:

|-----------------------------------|

|*---------------------------------*|

|*-0-0-0-0-0-0-0-0-0-0-0-0-0-0-0-0-*| (x4)

|-----------------------------------|

1 e & a 2 e & a 3 e & a 4 e & a

 

Verse & Chorus:

|-------------------------|-----------------------|

|-------------------------|-----------------------|

|-2-2-2-2-2-2-2-2-2-2-2-2-|-----------------------|

|-------------------------|-0-0-0-0-0-0-0-0-0-0-0-|

1 & 2 e & 3 & a 4 e & a 1 & 2 & a 3 e & a 4 &

 

|-------------------------|---------------------|(this rythm is

|-------------------------|---------------------| only approx.

|-------------------------|---------------------| rhythm is always

|-5-5-5-5-5-5-5-5-5-5-5-5-|-2-2-2-2-2-2-2-2-2-2-| changing)

1 & 2 e & a 3 & a 4 e & 1 & 2 & 3 e & a 4 &

 

Solo:

|---------------------|---------------------------|

|---------------------|---------------------------|

|-2-2-2-0-1-2-0-2---2-|-5-5-5-3-4-5-5-3-5---5-5-5-|

|---------------------|---------------------------|

1 & 2 & a 3 & a 4 & 1 & 2 & a 3 e & a 4 e & a

 

|---------------------|-----------------------|

|-----2-0-1-2-0-1-2-2-|-----2-0-1-2-2-0-1-2---|

|---------------------|---------------------0-|

|-0-0-----------------|-0-0-------------------|

1 & 2 & a 3 & a 4 & 1 & 2 & a 3 e & a 4 &

 

By: Johari Taylor

Email: viking@powerup.com.au

 

Return to my to my U2 bass tabs page

The Tablature is Copyright its respective owners.

Sign Up For My Newsletter
Subscribe | Unsubscribe

Site Map | Disclaimer | Privacy Policy | Media Kit | Submissions/Corrections

Website © 2000-2014 mattsmusicpage.com. All rights reserved.

Legal & DMCA: Matt's Music Page has been providing lyrics and tabs in a legal way, paying royalties each year to a few organizations. Then, all lyrics and tabs were removed from the site. Now, there's a new owner to the site, which purchased it August 26, 2014, and he is in negotiation to obtain licensing from BMI at the moment. If you have a specific DMCA request -- please do not hesitate to contact me via the contact button on top. I will do my very best to keep this site fully legal.

Get our toolbar!

 

Vintage Reuge Music Jewelry Box with Flower Inlay and Key - Munich
$144.0
Vintage Reuge Music Jewelry Box with Flower Inlay and Key - Munich picture


Vintage SANKYO Japan Lucite acrylic Plastic Piano Music Box
$8.99
Vintage SANKYO Japan Lucite acrylic Plastic Piano Music Box picture


ETHNIC 30s VINTAGE UKULELE LADY MUSIC HAWAII NUDE WOMAN HULA DANCER BREAST PHOTO
$9.99
ETHNIC 30s VINTAGE UKULELE LADY MUSIC HAWAII NUDE WOMAN HULA DANCER BREAST PHOTO picture


VINTAGE RUB RED CHENILLE WITH GOLD MUSICAL JEWELRY BOX
$12.99
VINTAGE RUB RED CHENILLE WITH GOLD MUSICAL JEWELRY BOX  picture


Melody in Motion Vintage Porcelain Willie the Clown w/ Trumpet "The Music Works"
$59.99
Melody in Motion Vintage Porcelain Willie the Clown w/ Trumpet