Your One-Stop Source For
Music Lyrics
Bass and Guitar Tabs
and More...
Music Lyrics Bass and Guitar Tabs

 

The Tabs Are Below

Learn To Read Tab
Chords Handbook
Corrections & Additions
Get Official Tab
U2 tabs @ 911Tabs

 

U2 Please (BASS TAB)

------------------------------------------

 

This Is one of mr claytons most effective sounding soung.

i have included both versions of the song both the album

and single versions. Both are great with the single version

having a much easier bassline. I preform personally in my band 'Gin'

and in our cover of please i do a mixture of the two versions. so

its up to you how you choose to play these. It dosent matter just

have fun and keep on groovin to U2 basslines!

 

Intro: (both versions)

 

|-----------------|-----------------| The amount of times repeated

|-----------------|-----------------| before rests varies between

|---5---5-7-5-----|---5---5---------| versions. (just listen)

|-7---7-------7-5-|-7---7---0-2-3-5-|

 

THe album versions then just comes in and continues the intro riff.

The single version plays a lead up run first

 

(Album version)

|-----------------|-----------------|

|-----------------|-----------------|

|---5---5-7-5-----|---5---5---------|

|-7---7-------7-5-|-7---7---0-2-3-5-|

 

(single version)

|---------|-----------------|-----------------|

|---------|-----------------|-----------------|

|---------|---5---5-7-5-----|---5---5---------|

|-0-2-3-5-|-7---7-------7-5-|-7---7---0-2-3-5-|

 

Those two are played during verses and chorus.

Just listen for the breaks and be carefull with the

timing (it sound really great if you get it right)

 

When the interlude comes we bassist have nothing to do so

just sit back and let the guitarist have fun.

 

Now comes the hard part the single version as i said is

a lot easier so if you not real quick it is proberly best to

use it until you can get the speed right.

 

(single version)

 

When bono sings please

|------|------|------|

|------|------|------|

|-5/14-|-5/12-|------|

|------|------|-5/12-|

 

repeat that twice

 

Then play a Joshua tree style bassline using the root of the chord

 

|-----------------| * means repeat note. Just continue on to the

|-----------------| end of the song.

|-14*-12*-----14*-|

|---------12*-----|

 

Now i think this is right but am proberly wrong but it sounds good

if in doubt jsut jam around the 12th and 14th frets on the a string

 

(Album version)

|-----------------|

|-----------------|

|-14-----12h14----|

|---12h14-----14--|

 

|------------------|

|------------------|

|------------------|

|-14p12h14p12p11p8-|

 

|------------------|

|------------------|

|------------------|

|-8-10-12-12-10p8--|

 

|-----------------|

|-----------------|

|-14-----12h14----|

|---12h14-----14--|

 

|---------------------| And just repeat that line adding your

|---------------------| own subtle differences and alternating between

|-12h14p12h14---------| ending on 12 and 10.

|------------14p12p10-|

 

|-----14-14--|

|--16--------| The very end bit

|------------|

|------------|

 

Now if you think this wrong and know the correct tab Please, send

it to me ant questions contact me by email at the address below. Also

if you have any U2 tabs no available at the U2 Guitar archive. Submit them

in to nathan. Or send me bass tab. keep on bassing!

Mark

 

Tabbed by Mark Linwood

 

 

Hint suggesstions or comments to (Rlinwood@powerup.com.au)

 

Return to my to my U2 bass tabs page

The Tablature is Copyright its respective owners.

Sign Up For My Newsletter
Subscribe | Unsubscribe

Site Map | Disclaimer | Privacy Policy | Media Kit | Submissions/Corrections

Website © 2000-2014 mattsmusicpage.com. All rights reserved.

Legal & DMCA: Matt's Music Page has been providing lyrics and tabs in a legal way, paying royalties each year to a few organizations. Then, all lyrics and tabs were removed from the site. Now, there's a new owner to the site, which purchased it August 26, 2014, and he is in negotiation to obtain licensing from BMI at the moment. If you have a specific DMCA request -- please do not hesitate to contact me via the contact button on top. I will do my very best to keep this site fully legal.

Get our toolbar!