Your One-Stop Source For
Music Lyrics
Bass and Guitar Tabs
and More...
Music Lyrics Bass and Guitar Tabs

 

The Tabs Are Below

Learn To Read Tab
Chords Handbook
Corrections & Additions
Get Official Tab
U2 tabs @ 911Tabs

Song: Miracle Drug

Artist: U2

Album: How To Dismantle An Atomic Bomb

Tabbed by: Jase Warner (trip_through_your_wires@hotmail.com)

 

Standard Tuning (E,A,D,G)

 

If the letter A is placed above a note put an accent onto the note.

Basically to emphasise Larrys snare hits. Think this is what

Adam does. Apologies for the layout but dont know why its gone all

messed up.

 

Pre-Chorus:

 

a a a a a a

G|-------------|-------------|-------------|-------------|

D|*------------|-------------|-------------|-------------|

A|*10-10-10-10-|-10-10-10-10-|-12-12-12-12-|-12-12-12-12-|

E|-------------|-------------|-------------|-------------|

 

a a a a a a

G|-------------|-------------|-------------|-------------|

D|-------------|-------------|-------------|------------*|

A|-------------|-------------|-------------|------------*|

E|-10-10-10-10-|-10-10-10-10-|-12-12-12-12-|-12-12-12-12-|

 

Chorus:

 

a a a a a a

G|-------------|-------------|-------------|-------------|

D|*------------|-------------|-------------|-------------|

A|*10-10-10-10-|-10-10-10-10-|-12-12-12-12-|-12-12-12-12-|

E|-------------|-------------|-------------|-------------|

 

a a a a a a

G|-------------|-------------|-------------|-------------|

D|-------------|-------------|-------------|------------*|

A|\\17-17-17-17-|-17-17-17-17-|-------------|------------*|

E|-------------|-------------|-12-12-12-12-|-12-12-12-12-|

 

a a a a a a

G|-------------|-------------|-------------|-------------|

D|*------------|-------------|-------------|-------------|

A|*10-10-10-10-|-10-10-10-10-|-12-12-12-12-|-12-12-12-12-|

E|-------------|-------------|-------------|-------------|

 

Second Verse:

 

G|---------|---------|---------|---------|---------|---------|---------|---------|

D|*--------|---------|---------|--------*|*--------|---------|---------|---------|

A|*--------|---------|---------|--------*|*5-5-5-5-|---5-5-5-|---------|---------|

E|-7-7-7-7~|-----5-\\-|-3-3-3-3-|---3-3-0-|---------|---------|-5-5-3-5-|---3-5-\\-|

 

G|---------|---------|---------|---------|---------|---------|---------|---------|

D|*--------|---------|---------|--------*|*--------|---------|---------|---------|

A|*--------|---------|---------|--------*|*5-5-5-5-|---5-5-5-|---------|---------|

E|-7-7-7-7~|---5-7-\\-|-3-3-3-3-|---3-3-0-|---------|---------|-5-5-5-5-|---3-5-\\-|

 

G|---------|---------|---------|---------|---------|---------|---------|---------|

D|*--------|---------|---------|--------*|*--------|---------|---------|---------|

A|*--------|---------|---------|--------*|*5-5-5-5-|---5-5-5-|---------|---------|

E|-7-7-7-7~|---5-7-\\-|-3-3-3-3-|---3-3-0-|---------|---------|-5-5-5-5-|---3-5-\\-|

 

G|---------|---------|---------|---------|---------|---------|---------|---------|

D|*--------|---------|---------|--------*|*--------|---------|---------|--------*|

A|*--------|---------|---------|--------*|*5-5-5-5-|---5-5-5-|---------|--------*|

E|-7-7-7-7~|---5-7-\\-|-3-3-3-3-|---3-3-0-|---------|---------|-5-5-5-5-|---3-5-\\-|

 

G|---------|---------|---------|---------|

D|*--------|---------|---------|--------*|

A|*--------|---------|---------|--------*|

E|-7-7-7-7~|---5-7-\\-|-3-3-3-3-|---3-3-3-|

 

Pre-Chorus:

 

G|-------------|-------------|-------------|-------------|

D|*------------|-------------|-------------|-------------|

A|*10-10-10-10-|-10-10-10-10-|-12-12-12-12-|-12-12-12-12-|

E|-------------|-------------|-------------|-------------|

 

G|-------------|-------------|-------------|-------------|

D|-------------|-------------|-------------|------------*|

A|-------------|-------------|-------------|------------*|

E|-10-10-10-10-|-10-10-10-10-|-12-12-12-12-|-12-12-12-12-|

 

G|-------------|-------------|-------------|-------------|

D|*------------|-------------|-------------|-------------|

A|*10-10-10-10-|-10-10-10-10-|-12-12-12-12-|-12-12-12-12-|

E|-------------|-------------|-------------|-------------|

 

G|-------------|-------------|-------------|-------------|

D|-------------|-------------|-------------|------------*|

A|-------------|-------------|-------------|------------*|

E|-10-10-10-10-|-10-10-10-10-|-12-12-12-12-|-12-12-12-12-|

 

Chorus:

 

a a a a a a

G|-------------|-------------|-------------|-------------|

D|*------------|-------------|-------------|-------------|

A|*10-10-10-10-|-10-10-10-10-|-12-12-12-12-|-12-12-12-12-|

E|-------------|-------------|-------------|-------------|

 

a a a a a a

G|-------------|-------------|-------------|-------------|

D|-------------|-------------|-------------|------------*|

A|\\17-17-17-17-|-17-17-17-17-|-19-19-19-19-|-19-19-19-19*|

E|-------------|-------------|-------------|-------------|

 

a a a a a a

G|-------------|-------------|-------------|-------------|

D|*------------|-------------|-------------|-------------|

A|*10-10-10-10-|-10-10-10-10-|-12-12-12-12-|-12-12-12-12-|

E|-------------|-------------|-------------|-------------|

 

a a a a a a

G|-------------|-------------|-------------|-------------|

D|-------------|-------------|-------------|------------*|

A|\\17-17-17-17-|-17-17-17-17-|-------------|------------*|

E|-------------|-------------|-12-12-12-12-|-12-12-12-12-|

 

a a a a a a

G|-------------|-------------|-------------|-------------|

D|*------------|-------------|-------------|-------------|

A|*10-10-10-10-|-10-10-10-10-|-12-12-12-12-|-12-12-12-12-|

E|-------------|-------------|-------------|-------------|

 

Bridge:

<------------------rest------------------>

G|-------------|-------------|-------------|-------------|

D|*------------|-------------|-------------|-------------|

A|*14~---------|-------------|-------------|-------------|

E|-------------|-------------|-------------|-------------|

<-------------------------rest------------------------->

G|-------------|-------------|-------------|-------------|

D|*------------|-------------|-------------|-------------|

A|*------------|-------------|-------------|-------------|

E|-------------|-------------|-------------|-------------|

 

G|-------------|-------------|-------------|-------------|

D|*------------|-------------|-------------|-------------|

A|*------------|-------------|-------------|-------------|

E|-7~----------|-----------\\-|-5~----------|-----------\\-|

 

G|-------------|-------------|-------------|-------------|

D|-------------|-------------|-------------|------------*|

A|-------------|-------------|-------------|------------*|

E|-3~----------|-----------\\-|-5~---\\---3~-|-------------|

 

G|-------------|-------------|-------------|-------------|

D|*------------|-------------|-------------|-------------|

A|*------------|-------------|-------------|-------------|

E|-7~----------|-----------\\-|-5~----------|-----------\\-|

 

G|-------------|-------------|-------------|-------------|

D|-------------|-------------|-------------|------------*|

A|-------------|-------------|-------------|------------*|

E|-3~----------|-----------\\-|-5~---\\---3~-|-------------|

 

G|-------------|-------------|-------------|-------------|

D|*------------|-------------|-------------|-------------|

A|*------------|-------------|-------------|-------------|

E|-7~----------|-----------\\-|-5~----------|-----------\\-|

 

G|-------------|-------------|-------------|-------------|

D|-------------|-------------|-------------|------------*|

A|-------------|-------------|-------------|------------*|

E|-3~----------|-----------\\-|-5~---\\---3~-|-------------|

 

Guitar Solo:

 

a a a a a a

G|-------------|-------------|-------------|-------------|

D|*------------|-------------|-------------|-------------|

A|*10-10-10-10-|-10-10-10-10-|-12-12-12-12-|-12-12-12-12-|

E|-------------|-------------|-------------|-------------|

 

a a a a a a

G|-------------|-------------|-------------|-------------|

D|-------------|-------------|-------------|------------*|

A|\\17-17-17-17-|-17-17-17-17-|-19-19-19-19-|-19-19-19-19*|

E|-------------|-------------|-------------|-------------|

 

a a a a a a

G|-------------|-------------|-------------|-------------|

D|*------------|-------------|-------------|-------------|

A|*10-10-10-10-|-10-10-10-10-|-12-12-12-12-|-12-12-12-12-|

E|-------------|-------------|-------------|-------------|

 

a a a a a a

G|-------------|-------------|-------------|-------------|

D|-------------|-------------|-------------|------------*|

A|\\17-17-17-17-|-17-17-17-17-|-19-19-19-19-|-19-19-19-19*|

E|-------------|-------------|-------------|-------------|

 

Pre-Chorus:

 

G|-------------|-------------|-------------|-------------|

D|*------------|-------------|-------------|-------------|

A|*10-10-10-10-|-10-10-10-10-|-12-12-12-12-|-12-12-12-12-|

E|-------------|-------------|-------------|-------------|

 

G|-------------|-------------|-------------|-------------|

D|-------------|-------------|-------------|------------*|

A|-------------|-------------|-------------|------------*|

E|-10-10-10-10-|-10-10-10-10-|-12-12-12-12-|-12-12-12-12-|

 

G|-------------|-------------|-------------|-------------|

D|*------------|-------------|-------------|-------------|

A|*10-10-10-10-|-10-10-10-10-|-12-12-12-12-|-12-12-12-12-|

E|-------------|-------------|-------------|-------------|

 

G|-------------|-------------|-------------|-------------|

D|-------------|-------------|-------------|------------*|

A|-------------|-------------|-------------|------------*|

E|-10-10-10-10-|-10-10-10-10-|-12-12-12-12-|-12-12-12-12-|

 

Chorus:

 

G|-------------|-------------|-------------|-------------|

D|*------------|-------------|-------------|-------------|

A|*10-10-10-10-|-10-10-10-10-|-12-12-12-12-|-12-12-12-12-|

E|-------------|-------------|-------------|-------------|

 

G|-------------|-------------|-------------|-------------|

D|-------------|-------------|-------------|------------*|

A|-14-14-14-14-|-14-14-14-14-|-------------|------------*|

E|-------------|-------------|-12-12-12-12-|-12-12-12-12-|

 

G|-------------|-------------|-------------|-------------|

D|*------------|-------------|-------------|-------------|

A|*10-10-10-10-|-10-10-10-10-|-12-12-12-12-|-12-12-12-12-|

E|-------------|-------------|-------------|-------------|

 

G|-------------|-------------|-------------|-------------|

D|-------------|-------------|-------------|------------*|

A|-14-14-14-14-|-14-14-14-14-|-------------|------------*|

E|-------------|-------------|-12-12-12-12-|-12-12-12-12-|

 

G|-------------|-------------|-------------|-------------|

D|*------------|-------------|-------------|-------------|

A|*10-10-10-10-|-10-10-10-10-|-12-12-12-12-|-12-12-12-12-|

E|-------------|-------------|-------------|-------------|

 

G|-------------|-------------|-------------|-------------|

D|-------------|-------------|-------------|------------*|

A|-14-14-14-14-|-14-14-14-14-|-------------|------------*|

E|-------------|-------------|-12-12-12-12-|-12-12-12-12-|

 

G|-------------|-------------|-------------|-------------|

D|*------------|-------------|-------------|-------------|

A|*10-10-10-10-|-10-10-10-10-|-12-12-12-12-|-12-12-12-12-|

E|-------------|-------------|-------------|-------------|

 

G|-------------|-------------|-------------|-------------|

D|-------------|-------------|-------------|------------*|

A|-14-14-14-14-|-14-14-14-14-|-------------|------------*|

E|-------------|-------------|-12-12-12-12-|-12-12-12-12-|

 

Ending:

 

G|-------------|-------------|

D|*------------|------------*|

A|*14~---------|------------*|

E|-------------|-------------|

 

Comments welcome as usual at email. Keept it up Adam Clayton, you complete legend!#---------------------------------PLEASE NOTE---------------------------------#

#This file is the author\'s own work and represents their interpretation of the#

#song. You may only use this file for private study, scholarship, or research.#

#-----------------------------------------------------------------------------#

 

Song: Miracle Drug

Artist: U2

Album: How To Dismantle An Atomic Bomb

Tabbed by: Jase Warner (trip_through_your_wires@hotmail.com)

 

Standard Tuning (E,A,D,G)

 

If the letter \'a\' is placed above a note, you have to put an accent onto

the note. Basically to emphasise Larry\'s snare hits, I think this is what

Adam does, pretty sure anyhow. I\'m not sure about naming different parts of

the song, but hey...here goes

 

Pre-Chorus:

 

a a a a a a

G|-------------|-------------|-------------|-------------|

D|*------------|-------------|-------------|-------------|

A|*10-10-10-10-|-10-10-10-10-|-12-12-12-12-|-12-12-12-12-|

E|-------------|-------------|-------------|-------------|

 

a a a a a a

G|-------------|-------------|-------------|-------------|

D|-------------|-------------|-------------|------------*|

A|-------------|-------------|-------------|------------*|

E|-10-10-10-10-|-10-10-10-10-|-12-12-12-12-|-12-12-12-12-|

 

Chorus:

 

a a a a a a

G|-------------|-------------|-------------|-------------|

D|*------------|-------------|-------------|-------------|

A|*10-10-10-10-|-10-10-10-10-|-12-12-12-12-|-12-12-12-12-|

E|-------------|-------------|-------------|-------------|

 

a a a a a a

G|-------------|-------------|-------------|-------------|

D|-------------|-------------|-------------|------------*|

A|\\17-17-17-17-|-17-17-17-17-|-------------|------------*|

E|-------------|-------------|-12-12-12-12-|-12-12-12-12-|

 

a a a a a a

G|-------------|-------------|-------------|-------------|

D|*------------|-------------|-------------|-------------|

A|*10-10-10-10-|-10-10-10-10-|-12-12-12-12-|-12-12-12-12-|

E|-------------|-------------|-------------|-------------|

 

Second Verse:

 

G|---------|---------|---------|---------|---------|---------|---------|---------|

D|*--------|---------|---------|--------*|*--------|---------|---------|---------|

A|*--------|---------|---------|--------*|*5-5-5-5-|---5-5-5-|---------|---------|

E|-7-7-7-7~|-----5-\\-|-3-3-3-3-|---3-3-0-|---------|---------|-5-5-3-5-|---3-5-\\-|

 

G|---------|---------|---------|---------|---------|---------|---------|---------|

D|*--------|---------|---------|--------*|*--------|---------|---------|---------|

A|*--------|---------|---------|--------*|*5-5-5-5-|---5-5-5-|---------|---------|

E|-7-7-7-7~|---5-7-\\-|-3-3-3-3-|---3-3-0-|---------|---------|-5-5-5-5-|---3-5-\\-|

 

G|---------|---------|---------|---------|---------|---------|---------|---------|

D|*--------|---------|---------|--------*|*--------|---------|---------|---------|

A|*--------|---------|---------|--------*|*5-5-5-5-|---5-5-5-|---------|---------|

E|-7-7-7-7~|---5-7-\\-|-3-3-3-3-|---3-3-0-|---------|---------|-5-5-5-5-|---3-5-\\-|

 

G|---------|---------|---------|---------|---------|---------|---------|---------|

D|*--------|---------|---------|--------*|*--------|---------|---------|--------*|

A|*--------|---------|---------|--------*|*5-5-5-5-|---5-5-5-|---------|--------*|

E|-7-7-7-7~|---5-7-\\-|-3-3-3-3-|---3-3-0-|---------|---------|-5-5-5-5-|---3-5-\\-|

 

G|---------|---------|---------|---------|

D|*--------|---------|---------|--------*|

A|*--------|---------|---------|--------*|

E|-7-7-7-7~|---5-7-\\-|-3-3-3-3-|---3-3-3-|

 

Pre-Chorus:

 

G|-------------|-------------|-------------|-------------|

D|*------------|-------------|-------------|-------------|

A|*10-10-10-10-|-10-10-10-10-|-12-12-12-12-|-12-12-12-12-|

E|-------------|-------------|-------------|-------------|

 

G|-------------|-------------|-------------|-------------|

D|-------------|-------------|-------------|------------*|

A|-------------|-------------|-------------|------------*|

E|-10-10-10-10-|-10-10-10-10-|-12-12-12-12-|-12-12-12-12-|

 

G|-------------|-------------|-------------|-------------|

D|*------------|-------------|-------------|-------------|

A|*10-10-10-10-|-10-10-10-10-|-12-12-12-12-|-12-12-12-12-|

E|-------------|-------------|-------------|-------------|

 

G|-------------|-------------|-------------|-------------|

D|-------------|-------------|-------------|------------*|

A|-------------|-------------|-------------|------------*|

E|-10-10-10-10-|-10-10-10-10-|-12-12-12-12-|-12-12-12-12-|

 

Chorus:

 

a a a a a a

G|-------------|-------------|-------------|-------------|

D|*------------|-------------|-------------|-------------|

A|*10-10-10-10-|-10-10-10-10-|-12-12-12-12-|-12-12-12-12-|

E|-------------|-------------|-------------|-------------|

 

a a a a a a

G|-------------|-------------|-------------|-------------|

D|-------------|-------------|-------------|------------*|

A|\\17-17-17-17-|-17-17-17-17-|-19-19-19-19-|-19-19-19-19*|

E|-------------|-------------|-------------|-------------|

 

a a a a a a

G|-------------|-------------|-------------|-------------|

D|*------------|-------------|-------------|-------------|

A|*10-10-10-10-|-10-10-10-10-|-12-12-12-12-|-12-12-12-12-|

E|-------------|-------------|-------------|-------------|

 

a a a a a a

G|-------------|-------------|-------------|-------------|

D|-------------|-------------|-------------|------------*|

A|\\17-17-17-17-|-17-17-17-17-|-------------|------------*|

E|-------------|-------------|-12-12-12-12-|-12-12-12-12-|

 

a a a a a a

G|-------------|-------------|-------------|-------------|

D|*------------|-------------|-------------|-------------|

A|*10-10-10-10-|-10-10-10-10-|-12-12-12-12-|-12-12-12-12-|

E|-------------|-------------|-------------|-------------|

 

Bridge:

<------------------rest------------------>

G|-------------|-------------|-------------|-------------|

D|*------------|-------------|-------------|-------------|

A|*14~---------|-------------|-------------|-------------|

E|-------------|-------------|-------------|-------------|

<-------------------------rest------------------------->

G|-------------|-------------|-------------|-------------|

D|*------------|-------------|-------------|-------------|

A|*------------|-------------|-------------|-------------|

E|-------------|-------------|-------------|-------------|

 

G|-------------|-------------|-------------|-------------|

D|*------------|-------------|-------------|-------------|

A|*------------|-------------|-------------|-------------|

E|-7~----------|-----------\\-|-5~----------|-----------\\-|

 

G|-------------|-------------|-------------|-------------|

D|-------------|-------------|-------------|------------*|

A|-------------|-------------|-------------|------------*|

E|-3~----------|-----------\\-|-5~---\\---3~-|-------------|

 

G|-------------|-------------|-------------|-------------|

D|*------------|-------------|-------------|-------------|

A|*------------|-------------|-------------|-------------|

E|-7~----------|-----------\\-|-5~----------|-----------\\-|

 

G|-------------|-------------|-------------|-------------|

D|-------------|-------------|-------------|------------*|

A|-------------|-------------|-------------|------------*|

E|-3~----------|-----------\\-|-5~---\\---3~-|-------------|

 

G|-------------|-------------|-------------|-------------|

D|*------------|-------------|-------------|-------------|

A|*------------|-------------|-------------|-------------|

E|-7~----------|-----------\\-|-5~----------|-----------\\-|

 

G|-------------|-------------|-------------|-------------|

D|-------------|-------------|-------------|------------*|

A|-------------|-------------|-------------|------------*|

E|-3~----------|-----------\\-|-5~---\\---3~-|-------------|

 

Guitar Solo:

 

a a a a a a

G|-------------|-------------|-------------|-------------|

D|*------------|-------------|-------------|-------------|

A|*10-10-10-10-|-10-10-10-10-|-12-12-12-12-|-12-12-12-12-|

E|-------------|-------------|-------------|-------------|

 

a a a a a a

G|-------------|-------------|-------------|-------------|

D|-------------|-------------|-------------|------------*|

A|\\17-17-17-17-|-17-17-17-17-|-19-19-19-19-|-19-19-19-19*|

E|-------------|-------------|-------------|-------------|

 

a a a a a a

G|-------------|-------------|-------------|-------------|

D|*------------|-------------|-------------|-------------|

A|*10-10-10-10-|-10-10-10-10-|-12-12-12-12-|-12-12-12-12-|

E|-------------|-------------|-------------|-------------|

 

a a a a a a

G|-------------|-------------|-------------|-------------|

D|-------------|-------------|-------------|------------*|

A|\\17-17-17-17-|-17-17-17-17-|-19-19-19-19-|-19-19-19-19*|

E|-------------|-------------|-------------|-------------|

 

Pre-Chorus:

 

G|-------------|-------------|-------------|-------------|

D|*------------|-------------|-------------|-------------|

A|*10-10-10-10-|-10-10-10-10-|-12-12-12-12-|-12-12-12-12-|

E|-------------|-------------|-------------|-------------|

 

G|-------------|-------------|-------------|-------------|

D|-------------|-------------|-------------|------------*|

A|-------------|-------------|-------------|------------*|

E|-10-10-10-10-|-10-10-10-10-|-12-12-12-12-|-12-12-12-12-|

 

G|-------------|-------------|-------------|-------------|

D|*------------|-------------|-------------|-------------|

A|*10-10-10-10-|-10-10-10-10-|-12-12-12-12-|-12-12-12-12-|

E|-------------|-------------|-------------|-------------|

 

G|-------------|-------------|-------------|-------------|

D|-------------|-------------|-------------|------------*|

A|-------------|-------------|-------------|------------*|

E|-10-10-10-10-|-10-10-10-10-|-12-12-12-12-|-12-12-12-12-|

 

Chorus:

 

G|-------------|-------------|-------------|-------------|

D|*------------|-------------|-------------|-------------|

A|*10-10-10-10-|-10-10-10-10-|-12-12-12-12-|-12-12-12-12-|

E|-------------|-------------|-------------|-------------|

 

G|-------------|-------------|-------------|-------------|

D|-------------|-------------|-------------|------------*|

A|-14-14-14-14-|-14-14-14-14-|-------------|------------*|

E|-------------|-------------|-12-12-12-12-|-12-12-12-12-|

 

G|-------------|-------------|-------------|-------------|

D|*------------|-------------|-------------|-------------|

A|*10-10-10-10-|-10-10-10-10-|-12-12-12-12-|-12-12-12-12-|

E|-------------|-------------|-------------|-------------|

 

G|-------------|-------------|-------------|-------------|

D|-------------|-------------|-------------|------------*|

A|-14-14-14-14-|-14-14-14-14-|-------------|------------*|

E|-------------|-------------|-12-12-12-12-|-12-12-12-12-|

 

G|-------------|-------------|-------------|-------------|

D|*------------|-------------|-------------|-------------|

A|*10-10-10-10-|-10-10-10-10-|-12-12-12-12-|-12-12-12-12-|

E|-------------|-------------|-------------|-------------|

 

G|-------------|-------------|-------------|-------------|

D|-------------|-------------|-------------|------------*|

A|-14-14-14-14-|-14-14-14-14-|-------------|------------*|

E|-------------|-------------|-12-12-12-12-|-12-12-12-12-|

 

G|-------------|-------------|-------------|-------------|

D|*------------|-------------|-------------|-------------|

A|*10-10-10-10-|-10-10-10-10-|-12-12-12-12-|-12-12-12-12-|

E|-------------|-------------|-------------|-------------|

 

G|-------------|-------------|-------------|-------------|

D|-------------|-------------|-------------|------------*|

A|-14-14-14-14-|-14-14-14-14-|-------------|------------*|

E|-------------|-------------|-12-12-12-12-|-12-12-12-12-|

 

Ending:

 

G|-------------|-------------|

D|*------------|------------*|

A|*14~---------|------------*|

E|-------------|-------------|

 

Comments welcome as usual at email. Keept it up Adam Clayton, you complete legend!

 

 

Return to my to my U2 bass tabs page

The Tablature is Copyright its respective owners.

Sign Up For My Newsletter
Subscribe | Unsubscribe

Site Map | Disclaimer | Privacy Policy | Media Kit | Submissions/Corrections

Website © 2000-2014 mattsmusicpage.com. All rights reserved.

Legal & DMCA: Matt's Music Page has been providing lyrics and tabs in a legal way, paying royalties each year to a few organizations. Then, all lyrics and tabs were removed from the site. Now, there's a new owner to the site, which purchased it August 26, 2014, and he is in negotiation to obtain licensing from BMI at the moment. If you have a specific DMCA request -- please do not hesitate to contact me via the contact button on top. I will do my very best to keep this site fully legal.

Get our toolbar!

 

Starbucks You Are Here Coffee Mug/Cup KENTUCKY - Horses, Banjo, Blue, White
$19.99
Starbucks You Are Here Coffee Mug/Cup KENTUCKY - Horses, Banjo, Blue, White picture


KNOWLES ROCKWELL HERITAGE "THE BANJO PLAYER" FIRST EDITION 1989 PLATE COA
$5.99
KNOWLES ROCKWELL HERITAGE


Vintage Postcard 1981 Disney World Banjo Kings Main Street USA 1981 Postmark
$4.99
 Vintage Postcard 1981 Disney World Banjo Kings Main Street USA 1981 Postmark picture


Banjo Barometer With Thermometer Hygrometer 490mm
$84.76
Banjo Barometer With Thermometer Hygrometer 490mm picture


ANTIQUE JAPANESE NIPPON FIGURINE SET OF 3 WOMEN GEISHA PLAYING DRUM BANJO FAN
$24.0
ANTIQUE JAPANESE NIPPON FIGURINE SET OF 3 WOMEN GEISHA PLAYING DRUM BANJO FAN picture