Your One-Stop Source For
Music Lyrics
Bass and Guitar Tabs
and More...
>Music Lyrics Bass and Guitar Tabs

 

The Tabs Are Below

Learn To Read Tab
Chords Handbook
Corrections & Additions
Get Official Tab
U2 tabs @ 911Tabs

 

An Cat Dubh

U2

 

 

Tune down 1/2 step to: Eb Ab Db Gb Bb Eb

 

 

Intro riff:

D D

|------------------------------|-------------------------------|

|------------------------------|-------------------------------|

|:----------------------9-7----|------------------------9-7----|

|:----7----8----7----8------8--|-----7----8----7-----8------8--|

|---5----5----5----5-----------|---5----5----5----5------------|

|------------------------------|-------------------------------|

 

While the bass plays D during verse, edge plays riff similar to this:

 

|--------------------------------------------------------------|

|--------------------------------------------------------------|

|:-----------------------------------------7-------------------|

|:---7----------------7----9---------12----7-------------------|

|--5----------------5------7---------10------------------------|

|--------------------------------------------------------------|

Say goodnight, she waits for me to put out the light.

 

D

Say goodnight, she waits for me to put out the light.

D

Lay there still,

D

She waits to break my will.

 

C G D

Yo oh oh, oh oh, yoh oh, oh

C G D

Yo oh oh, oh oh, yoh oh, oh

C G D

Yo oh oh, oh oh, yoh oh, oh

C G

Yes, if I know the truth,

F

How bout you?

(She got it)

 

 

 

And in the daylight,

A blackbird makes a fire inside.

And when she is done,

She sleeps beside the night.

 

Yo oh oh, oh oh, yoh oh, oh

Yo oh oh, oh oh, yoh oh, oh

Yo oh oh, oh oh, yoh oh, oh

Yes, I know the truth,

How bout you?

(She got it)

 

 

 

<1st solo>:

D D

|------------------------------|-------------------------------|

|------------------------------|-------------------------------|

|:-----------------------------|-------------------------------|

|:-----------------------------|-------------------------------|

|--14--14/12----14--14/12------|--14--14/12----14--14/12-------|

|--12--12/10----12--12/10------|--12--12/10----12--12/10-------|

 

Yo oh oh, oh oh, yoh oh, oh

Yo oh oh, oh oh, yoh oh, oh

Yo oh oh, oh oh, yoh oh, oh

Yes, I know the truth,

How bout you?

(She got it)

 

 

 

<2nd solo>:

 

|------------------------------|-------------------------------|

|------------------------------|-------------------------------|

|:-----------------------------|-------------------------------|

|:---3---4-3-2------3---4-3-2--|----7---8-7-6-------7---8-7-6--|

|--5---5----------5---5--------|--9---9-----------9---9--------|

|------------------------------|-------------------------------|

 

|-------------------------------------------------------------|

|-------------------------------------------------------------|

|:---5---7---5---7---5---7---5---7---5------------------------|

|:-8---8---8---8---8---8---8---8---8--------------------------|

|-------------------------------------------------------------|

|-------------------------------------------------------------|

 

|--------------------------------------------------------------|

|--------------------------------------------------------------|

|:----9----11---9----11---9----11---9----11--------------------|

|:-12---12---12---12---12---12---12---12---12--------12--------|

|---------------------------------------------13-12--12--------|

|----------------------------------------------------10--------|

(let ring)

 

Return to my to my U2 tabs page

The Tablature is Copyright its respective owners.

Sign Up For My Newsletter
Subscribe | Unsubscribe

Site Map | Disclaimer | Privacy Policy | Media Kit | Submissions/Corrections

Website © 2000-2014 mattsmusicpage.com. All rights reserved.

Legal & DMCA: Matt's Music Page has been providing lyrics and tabs in a legal way, paying royalties each year to a few organizations. Then, all lyrics and tabs were removed from the site. Now, there's a new owner to the site, which purchased it August 26, 2014, and he is in negotiation to obtain licensing from BMI at the moment. If you have a specific DMCA request -- please do not hesitate to contact me via the contact button on top. I will do my very best to keep this site fully legal.

Get our toolbar!

 

OLD LARGE HISTORIC PHOTO OF THE ROLLING STONES, MICK JAGGER etc c1962
$5.0
OLD LARGE HISTORIC PHOTO OF THE ROLLING STONES, MICK JAGGER etc c1962 picture


MOJO MAGAZINE APRIL 2008 ROLLING STONES COVER MICK JAGGER KEITH RICHARDS NICE
$9.25
MOJO MAGAZINE APRIL 2008 ROLLING STONES COVER MICK JAGGER KEITH RICHARDS NICE picture


RRRARE ORIGINAL Official Rolling Stones Havana Cuba BACKSTAGE PASS AND ARMBAND
$299.99
RRRARE ORIGINAL Official Rolling Stones Havana Cuba BACKSTAGE PASS AND ARMBAND picture


17 Snapshots....Rolling Stones Backstage...San Bernardino Swing Auditorium..1964
$270.0
17 Snapshots....Rolling Stones Backstage...San Bernardino Swing Auditorium..1964 picture


VINTAGE BUDWEISER ROLLING STONES VOODOO LOUNGE TICKET KEYCHAIN
$5.99
VINTAGE BUDWEISER ROLLING STONES VOODOO LOUNGE TICKET KEYCHAIN picture