Your One-Stop Source For
Music Lyrics
Bass and Guitar Tabs
and More...
Music Lyrics Bass and Guitar Tabs

The Tabs Are Below

Learn To Read Tab
Chords Handbook
Corrections & Additions
Get Official Tab
Transplants tabs @ 911Tabs

Note: Even though its a punk band, this song obviously sounds hip hop,

but here are the tabs none-the-less..

 

Key

 

h = hammer on

/ = slide up

\ = slide down

 

 

Intro/Verse (clean)

e|----7-7---|

B|-6--------|

G|----------|repeat as needed

D|-4--------|

A|----------|

E|----------|

(sounds like 2 gtrs play this part)

 

 

"It's Mr. Hard to get along with.."

(clean)

e|-77-7-5-------------------------67688-7-5-6h8-5---5h7-6---6h8-6---6h9----|

B|-55-5---777-55-6-44-7-4-5-3-5-3-67688-----5-----7-------8-------8--------|

G|--------------------------------45466------------------------------------|

D|-------------------------------------------------------------------------|

A|-------------------------------------------------------------------------|

E|-------------------------------------------------------------------------|

 

 

e|-5---5h7-6---6h8-6---6h7---7----9/10------|--8----|-------10-------------|

B|---7-------8-------7-------------------8--|---7-7-|---8h9----------------|

G|------------------------------------------|----9--|----------------------|

D|------------------------------------------|-------|----------------------|

A|------------------------------------------|-------|----------------------|

E|------------------------------------------|-------|----------------------|

repeat this

part about 4x

but space it out

alittle bit

 

 

You have to play that big part a couple more times in the song but thats it.

Enjoy people of the UG underground..

 

Return to my Transplants tabs page

The Tablature is Copyright its respective owners.

Get our toolbar!