Your One-Stop Source For
Music Lyrics
Bass and Guitar Tabs
and More...
Music Lyrics Bass and Guitar Tabs

 

The Tabs Are Below

Learn To Read Tab
Chords Handbook
Corrections & Additions
Get Official Tab
Transplants tabs @ 911Tabs

intro/chorus Type 1

G|--------------------------------------------------------------------|

D|--------------------3-3-3-3---------3-3-3-3----------------5-55555--|

A|-3-----3-3-3-33---3---------3-33333---------3-33333-5-5-5-5---------|

E|---3-5---------3-5--------------------------------------------------|

 

verse type 1

G|------------5-------------------------7------------|

D|-3-33-3-377-----------22-5---------77---5-55-5-55--|

A|--------------3-33-3-3-----5-55-5-5----------------|

E|---------------------------------------------------|

 

verse type 2

G|------------------------------------------|

D|-3-33-3-33---------------------5-55-5-55--|

A|-----------3-33-3-33-5-55-5-55------------|

E|------------------------------------------|

 

chorus type 2

G|-----------------------------------------------------------------------|

D|---------------------33333333--------33333333-----------------55555555-|

A|-3333-33---3333-33-----------33333333--------33333333-55555555---------|

E|--------3-5-------3-5--------------------------------------------------|

 

listen for timing, order and "slight" variations peace...

 

 

Return to my Transplants bass tabs page

The Tablature is Copyright its respective owners.

Sign Up For My Newsletter
Subscribe | Unsubscribe

Site Map | Disclaimer | Privacy Policy | Media Kit | Submissions/Corrections

Website © 2000-2014 mattsmusicpage.com. All rights reserved.

Get our toolbar!