Your One-Stop Source For
Music Lyrics
Bass and Guitar Tabs
and More...
Music Lyrics Bass and Guitar Tabs

 

The Tabs Are Below

Learn To Read Tab
Chords Handbook
Corrections & Additions
Get Official Tab
Tonic tabs @ 911Tabs

Soldier's Daughter

Tonic

 

 

Tune Down 1/2 step

 

 

Intro: Riff 1 Fill into Riff 1

G

-------5-5-----------3333----------|--3h3-----Riff 1

---5/7-----5h7h5\3---3333----------|--5h3-----------

-------------------0-0000-strum----|----------------

-----------------------------------|----------------

-----------------------------------|----------------

-----------------------------------|----------------

 

Fill after Riff 1 (fourth time) Note: This is a *tough

stretch*....It'll take some practice and some dexterity.

 

G

-3333--3355--7--10-7h8h7\5------

-3333--3333--3------------------

-0000--0000--0------------------

--------------------------------

--------------------------------

--------------------------------

 

 

 

Verse riff

(Dsus2) (G)

----------------------------33----00-0-000---

-3--555-33-2h33--55--333----33----22h3-320---

-2--222-22-2h22--22--222----00----00-0-000---

-0--000-00-0-00--00--000----00----00---------

----------------------------22----00---------

----------------------------33---------------

 

 

 

Verse riff

 

It's the way he looks at you

That says to me

This isn't over

>From the outside looking in

You see there's nothing sacred here

Nothing sacred

 

Pre-chorus

 

(A)

 

You can bend...But you can't break....

 

 

Verse riff again

 

 

For the reasons out of our control

You try to make it roll

Like a dice away

But you say that you're all empowered here

This is obviously not clear enough

To me

 

Pre-chorus

 

(A)

 

You can bend...But you can't break....

You can't break

 

Chorus

 

(G) (A) (Dsus2) (A)

 

Hey, little girl, keep dancin'....Hey, little girl....

 

(G)

 

Keep dancin' alone, 'cause there's not enough time in

 

(A) (C)

 

your day to keep you here....

 

Solo (Rhythm is chords for chorus)

 

(Bb)

 

Soldier's daugther, did your daddy...Did your daddy

 

(Dsus2) First part of Verse riff

 

hurt you? Did he make you feel bad?

 

(Bb) (A)

 

Did he poison your views...With the water he was raised

 

on?

 

Fill

 

---------

---------

---------

-2-2h4---

---------

---------

 

Continue strumming (A)

 

Fill

 

------5---

--7-8-----

----------

----------

----------

----------

 

 

Chorus

 

Second solo (G, A, C, G)

 

Outro is first riff, ending in (Dsus2)

 

So over the hills he'd climb

Just to see her there in time

Just to watch the sun shine through her eyes

The sweet soldier's daughter

The sweet soldier's daughter

 

 

Return to my to my Tonic tabs page

The Tablature is Copyright its respective owners.

Sign Up For My Newsletter
Subscribe | Unsubscribe

Site Map | Disclaimer | Privacy Policy | Media Kit | Submissions/Corrections

Website © 2000-2014 mattsmusicpage.com. All rights reserved.

Legal & DMCA: Matt's Music Page has been providing lyrics and tabs in a legal way, paying royalties each year to a few organizations. Then, all lyrics and tabs were removed from the site. Now, there's a new owner to the site, which purchased it August 26, 2014, and he is in negotiation to obtain licensing from BMI at the moment. If you have a specific DMCA request -- please do not hesitate to contact me via the contact button on top. I will do my very best to keep this site fully legal.

Get our toolbar!