Your One-Stop Source For
Music Lyrics
Bass and Guitar Tabs
and More...
Music Lyrics Bass and Guitar Tabs

 

The Tabs Are Below

Learn To Read Tab
Chords Handbook
Corrections & Additions
Get Official Tab
Tonic tabs @ 911Tabs

TONIC - "Open Up Your Eyes"

Words & Music by Emerson Hart

Transcribed by Jake Williams: jrw32@eden.rutgers.edu

 

Dropped D tuning (low to high)

D

A

D

G

B

E

 

 

Guitar 1=Acoustic

Guitar 2=Electric

 

Intro: Hold A note on 2nd fret, G stg with volume all the way down and

slowly volume swell w/ heavy distortion and feedback....pull off to an

open G note at last second.

 

 

Gtr 1 & 2 Simile

 

C G D C G

-------------------------------------2--2-3-|------------------------

-------------------------------------3--3-3-|------------------------

---------0-----------0---------------2--2-2-|-------0-------------0--

-----2-----------0-------------------0--0-0-|----2-----------0-------

-3-----------2------------------------------|-3---------2------------

--------------------------3~0---------------|------------------------

3 times then Bend note 1/2

next measure>> step here then pull off to open D

 

 

After 2nd chorus Gtr 2 plays the following:

D w/ variations

-----3------2------2------0------2------2-------

-------3------3------3------3------3------3-----

---------2------2-------------2------2----------

------------------------------------------------

------------------------------------------------

------------------------------------------------

 

 

Verses: D5 power chord palm muted

----------

----------Gtr 1 & 2 simile

----------

----0-----

----0-----PM

----0-----

 

 

Gtr 2 plays D riffs w/ variations like the following after palm muted

part:

#1 #2 #3

---0---0-0--0^2--2--- ---0--0^2--3~2--0^2--- ---3--3-2--3--3~2---

---3---3-3--3----3--- ---3--3----3----3----- ---3--3-3--3--3-----

---2---2-2--2----2--- ---2--2----2----2----- ---2--2-2--2--2-----

---0---0-0--0----0--- ---0--0----0----0----- ---0--0-0--0--0-----

--------------------- ---------------------- --------------------

--------------------- ---------------------- --------------------

 

Then play chorus (same as intro above)

After 2nd chorus then Gtr 1 & 2 play Bsus2 chord: --0--

--0--

--X--

--9--

--9--

--9--

 

Gtr 2 plays solo w/ distortion and some wah off and on while rhythm

gtr plays:

D

----------------2-2---2-2---

----------------3-3---3-3---

----------------2-2---2-2--- 8 measures then next riff down

---------0------0-0---0-0---

---------0------------------

--3~0----0------------------

Bend note 1/2 step then pull off to open D

 

D chord palm muted again

-----------------------|------

-----------------------|------

----------0------------|------

------4----------5-----|--0---

---5---------------5---|--0---

-----------------------|--0---

^ Twice then>>

 

End: Both riffs 4 times

 

Gtr 1 D Gtr 2

--------------2--2---2-2------ -----------------------------

--------------3--3---3-3------ -----------------------------

--------------2--2---2-2------ ---10--7-7---7-7---7---7-----

----------0---0--0---0-0------ ----0--0-0---0-0---0---0-----

----------0---0--0---0-0------ -----------------------------

---3~0----0---0--0---0-0------ -----------------------------

Bend note 1/2 step and pull Bend first diad in this riff 1/2 step

off to open D note and add vibrato to rest of diads

 

Both guitars end on Csus/F chord and fade out

--0--

--1--

--0--

--3--

--3--

--3--

 

As usual, ^ is a hammer-on and ~ is a pull off...Sorry it's been so

long since I tabbed out a song, but I didn't have access to the

internet and I've been busy with school and my own band.

 

Return to my to my Tonic tabs page

The Tablature is Copyright its respective owners.

Sign Up For My Newsletter
Subscribe | Unsubscribe

Site Map | Disclaimer | Privacy Policy | Media Kit | Submissions/Corrections

Website © 2000-2014 mattsmusicpage.com. All rights reserved.

Legal & DMCA: Matt's Music Page has been providing lyrics and tabs in a legal way, paying royalties each year to a few organizations. Then, all lyrics and tabs were removed from the site. Now, there's a new owner to the site, which purchased it August 26, 2014, and he is in negotiation to obtain licensing from BMI at the moment. If you have a specific DMCA request -- please do not hesitate to contact me via the contact button on top. I will do my very best to keep this site fully legal.

Get our toolbar!