Your One-Stop Source For
Music Lyrics
Bass and Guitar Tabs
and More...
Music Lyrics Bass and Guitar Tabs

 

The Tabs Are Below

Learn To Read Tab
Chords Handbook
Corrections & Additions
Get Official Tab
Tonic tabs @ 911Tabs

TONIC - "Lemon Parade"

Words & Music by Emerson Hart and Jeff Russo

Transcribed by: Jake Williams: jrw32@eden.rutgers.edu

 

Capo IV (All chords and notes relative to capo position)

 

INTRO:

C G F C

---------------3--3-3--3-x-x-1-x----0--0--0-0-------------------------------

--------0^1----0--0-0--0-x-x-1-x----1--1--1-1-------------------------------

-----0---------0--0-0--0-x-x-2-x----0--0--0-0----------0--------------------

-2-3-----------0--0-0--0-x-x-3-x--0^2--2--2-2----2^3-------2^3~2~0----------

---------------2--2-2--2-x-x-3-x----3--3--3-3-------------------------------

---------------3--3-3--3-x-x-1-x-------------------------------------------

 

 

G F C

---3--3-3-x-x-1-x---0-----

---0--0-0-x-x-1-x---1-----

---0--0-0-x-x-2-x---0-----

---0--0-0-x-x-3-x-0^2-----

---2--2-2-x-x-3-x---3-----

---3--3-3-x-x-1-x---------

 

VERSE: G G11 (use 4th fing. for high g here)

--------------------3--3--3-3-----3--3-3--3-3-3-3---------------------------

------1-------1-----0--0--0-0^1---1--1-1--0-0-0-0---------1--------1--------

----0-------0----0--0--0--0-0-----0--0-0--0-0-0-0-------0--------0------0---

--2-------3----0----0--0--0-0-----0--0-0--0-0-0-0-----3--------2------0-----

--------------------2--2--2-2-----2--2-2--2-2-2-2---------------------------

--------------------3--3--3-3-----3--3-3--3-3-3-3---------------------------

 

 

C

---0--0-------1-------1------1-------0-------------Repeat 1st part 3 times,

---1--1---------1-------1------1----------1--------then play the following

---0--0-----------0-------0------0---------------0-

---2--2--------------------------------------------

---3--3--3-----------------------------------------

---------------------------------------------------

 

 

G G11 (use 4th fing. again)

--------------------3--3--3-3-------3--3--3---3-3-3-3------------------------

------1------1----0-0--0--0-0^1-----1--1--1---0-0-0-0--------1--------1----0-

----0------0----0---0--0--0-0-------0--0--0---0-0-0-0------0--------0----0---

--2------3----------0--0--0-0-------0--0--0---0-0-0-0----3--------2----------

--------------------2--2--2-2-------2--2--2---2-2-2-2------------------------

--------------------3--3--3-3-------3--3--3---3-3-3-3------------------------

 

 

C C/F (up pick) C

---0--0--0-0-x--1--1--1--1----1-x---0--------

---1--1--1-1-x--1--1--1--1----1-x---1--------

---0--0--0-0-x--0--0--0--0----0-x---0--------

---2--2--2-2-x--2--2--2--2----2-x---2--------

---3--3--3-3-x----------------------3--------

 

 

CHORUS: G F C (play chords here) G F Am

---------------------------------------------------------------------------

---------0^1----------------------------------0^1--------------------------

------0------------------------------------0-------------------------------

--2-3----------------------------------2-3---------------------------------

---------------------------------------------------------------------------

---------------------------------------------------------------------------

 

 

G F C G F C (hold)

---------------------------------------------------------------------------

---------0^1---------------------------------------------------------------

------0----------------------------------0---------------------------------

--2-3--------------------------------2^3----2^3~2~0------------------------

---------------------------------------------------------------------------

---------------------------------------------------------------------------

 

 

 

SOLO: (Played after 2nd Chorus--Rhythm guitar plays Chorus riff)

---------------------------------------------------------------------------

---------------------------------------------------------------------------

---------/4-/4--2-4--4(bend 1/4 step)--2--0--0--0---/4-/4--2-4--4(bend 1/2)

---/5/---------------------------------------------------------------------

---------------------------------------------------------------------------

---------------------------------------------------------------------------

 

 

-----------------------------------------------------------------3---------

--------------------------------------------------------------/5---5~3~1---

---2~0-2--0--0--0---/4-/4--2-4--4(bend 1/4 step)--2--0--0--0---------------

---------------------------------------------------------------------------

---------------------------------------------------------------------------

---------------------------------------------------------------------------

 

Play chorus once more, then end on:

G F C (strum, hold, & fade out)

--------------------3--3--3-3-3-x-x-1-x-0----

--------------------0--0--0-0-0-x-x-1-x-1----

--------0-----------0--0--0-0-0-x-x-2-x-0----

---2^3-----2^3~2~0--0--0--0-0-0-x-x-3-x-2----

--------------------2--2--2-2-2-x-x-3-x-3----

--------------------3--3--3-3-3-x-x-1-x------

 

 

Work with the rhythm and the feel of the song will come to you.

The song is a little more complex because of the 2nd guitar, but this

is a cool version for playing it by yourself.

^ is a hammer on

~ is a pull off

Thanks to Jeff for help on some of the tunings and capo placements.

 

 

 

Return to my to my Tonic tabs page

The Tablature is Copyright its respective owners.

Sign Up For My Newsletter
Subscribe | Unsubscribe

Site Map | Disclaimer | Privacy Policy | Media Kit | Submissions/Corrections

Website © 2000-2014 mattsmusicpage.com. All rights reserved.

Legal & DMCA: Matt's Music Page has been providing lyrics and tabs in a legal way, paying royalties each year to a few organizations. Then, all lyrics and tabs were removed from the site. Now, there's a new owner to the site, which purchased it August 26, 2014, and he is in negotiation to obtain licensing from BMI at the moment. If you have a specific DMCA request -- please do not hesitate to contact me via the contact button on top. I will do my very best to keep this site fully legal.

Get our toolbar!