Your One-Stop Source For
Music Lyrics
Bass and Guitar Tabs
and More...
Music Lyrics Bass and Guitar Tabs

 

The Tabs Are Below

Learn To Read Tab
Chords Handbook
Corrections & Additions
Get Official Tab
Tonic tabs @ 911Tabs

Future Says Run

 

This is played in double drop D with a capo

on the 2nd fret.

Tuning high to low: D, B, G, D, A, D

Enjoy!.........Email me if you have any Tonic questions(Tonic_22@msn.com).

h= Hammer on

p= Pull off

/= Slide

Intro: Repeat Twice

-0-00-0-0-0---000---

-0-00-0-0-0---000---

-6-77-6-x-6h7-777---

-x-xx-x-x-x---xxx--

-x-xx-x-x-x---xxx--

-x-xx-x-x-x---xxx--

 

Verses 1 and 2

Holding lightly...words that make you aware

-0-00-0-0-0---000--0-00-0-0-0----000---0-0--xxxx--0-xx-0--0--xxxx-00--

-0-00-0-0-0---000--0-00-0-0-0----000---0-0--xxxx--0-xx-0--0--xxxx-00--

-6-77-6-6-6h7-777--6-77-6-6-6h7--777-11-11--xxxx--11xx-11-11-xxxx1111-

-5-55-5-5-5---555--5-55-5-5-5----555---9-9--xxxx--9-xx-9--9--xxxx-99--

-5-55-5-x-5---555--5-55-5-x-5----555---9-9--xxxx--9-xx-9--9--xxxx-99--

-5-55-5-x-5---555--5-55-5-x-5----555---9-9--xxxx--9-xx-9--9--xxxx-99--

 

Pre Chorus

the power you hold is the power that mends......

-0--------------0----------------------0--------

-0--------------0----------------------0--------

-11-------------9----------------------7--------

-9--------------7----------------------5--------

-9--------------7----------------------5--------

-9--------------7----------------------5--------

 

Chorus

You can't go on..........you cant even ..........t a l k

-0------------0----------0--0--0-0-0-0-----0----0------

-0------------3----------3--3--3-3-3-3-----3----0------

-7------------2----------0--0--0-0-0-0-----4----2------

-5------------0----------5--4--2-0-2-0-----4----2------

-5------------0----------x--x--x-----------2----0------

-5------------0----------x--x--x-----------x----x------

 

Outro(repeat and fade out)

-0-0----x-0-0-------------0-0--0-0-----

-0-0-0--x-0------0--------0-0--0-0-----

-6-x-6-6h-7---7-6h7p6-/-4-4-4--2-2-----

---------------------------------------

---------------------------------------

---------------------------------------

 

Return to my to my Tonic tabs page

The Tablature is Copyright its respective owners.

Sign Up For My Newsletter
Subscribe | Unsubscribe

Site Map | Disclaimer | Privacy Policy | Media Kit | Submissions/Corrections

Website © 2000-2014 mattsmusicpage.com. All rights reserved.

Legal & DMCA: Matt's Music Page has been providing lyrics and tabs in a legal way, paying royalties each year to a few organizations. Then, all lyrics and tabs were removed from the site. Now, there's a new owner to the site, which purchased it August 26, 2014, and he is in negotiation to obtain licensing from BMI at the moment. If you have a specific DMCA request -- please do not hesitate to contact me via the contact button on top. I will do my very best to keep this site fully legal.

Get our toolbar!

 

VINTAGE SORRENTO MUSIC JEWELRY BOX
$45.0
VINTAGE SORRENTO MUSIC JEWELRY BOX picture


VINTAGE LACQUERED MUSIC BOX JAPAN
$25.99
VINTAGE LACQUERED MUSIC BOX JAPAN picture


Vintage Kehlsteinhaus Bavaria Germany Colorscope Cow Bell View Master Music Box
$8.99
Vintage Kehlsteinhaus Bavaria Germany Colorscope Cow Bell View Master Music Box picture


VINTAGE SCHMIDT Signed Collectible Musical Turning Clown
$9.99
VINTAGE  SCHMIDT Signed Collectible Musical Turning Clown picture


Vintage - Linen - Postcard - Stage - Radio City Music Hall - New York City
$3.75
Vintage - Linen - Postcard - Stage - Radio City Music Hall - New York City   picture