Your One-Stop Source For
Music Lyrics
Bass and Guitar Tabs
and More...
Music Lyrics Bass and Guitar Tabs

 

The Tabs Are Below

Learn To Read Tab
Chords Handbook
Corrections & Additions
Get Official Tab
Tonic tabs @ 911Tabs

 

 TONIC "open up your eyes" -BASS TAB

---------------------------

Tune drop d - d a d g

Another dead easy song! Simple but effective

 

Verse:

|---------------------------------|

|---------------------------------|

|---------------------------------|

|-0-0-0-0-0-0-0-0-0-0-0-0-0-0-0-0-|

 

Chorus:

|---------------|

|---------------|

|-3-2-----------|

|-----3-0-(0)-3-|

 

interude

|-------------------|--------------------|

|-------------------|--------------------|

|-------------------|--------------------|

|-3-0-0-0-0-00-0-02-|-3-0-0-00-0-00-0-02-|

 

* = repeat bar

h = hammeron

p = pulloff

~ = vibrato

/ = slide up

\ = slide down

(X)= hold note (let ring)

 

Tabbed by Mark Linwood

 

Hint suggesstions or comments to (Rlinwood@powerup.com.au)

I will reply to all emails

 

Return to my to my Tonic bass tabs page

The Tablature is Copyright its respective owners.

Sign Up For My Newsletter
Subscribe | Unsubscribe

Site Map | Disclaimer | Privacy Policy | Media Kit | Submissions/Corrections

Website © 2000-2014 mattsmusicpage.com. All rights reserved.

Legal & DMCA: Matt's Music Page has been providing lyrics and tabs in a legal way, paying royalties each year to a few organizations. Then, all lyrics and tabs were removed from the site. Now, there's a new owner to the site, which purchased it August 26, 2014, and he is in negotiation to obtain licensing from BMI at the moment. If you have a specific DMCA request -- please do not hesitate to contact me via the contact button on top. I will do my very best to keep this site fully legal.

Get our toolbar!