Your One-Stop Source For
Music Lyrics
Bass and Guitar Tabs
and More...
>Music Lyrics Bass and Guitar Tabs

 

The Three Days Grace Guitar Tabs Are Below

Learn To Read Tab
Chords Handbook
Corrections & Additions
Get Official Tab
Three Days Grace tabs @ 911Tabs

Artist : Three Days Grace

Song : Pain

Album : One-X

Tuning : Drop D

Tabber : jaames

 

Intro/verse (x1) "Pain, without love...Pain, I can't get enough"

E|------0-------0------0--------0-|------0-------0--------0--------0--------------0-|

B|--------0--------------0--------|--------0-------0--------0--------0-------0------|

G|---12------12-----12-------12---|---12-------12------12-------12--------12---12---|

D|-14------13-----12-------11-----|-14-------13------12-------11-------10-----------|

A|--------------------------------|-------------------------------------------------|

D|--------------------------------|-------------------------------------------------|

 

Chorus (x1) "Pain, without love...Pain, I can't get enough"

E|------------------------------------------------------|

B|------------------------------------------------------|

G|---------4-5-4-2--------------------4-5-4-2----2------|

D|-2--2----x-x-x-x----5--0----2--2----x-x-x-x----2--0---|

A|-2--2----2-3-2-0----5--0----2--2----2-3-2-0----0--0---|

D|-2--2---------------5--0----2--2------------------0---|

 

E|------------------------------------------------------------|

B|------------------------------------------------------------|

G|---------4-5-4-2----------------------------------11-12-11--|

D|-2--2----x-x-x-x----5--0----12-12-12-12----0--0----x--x--x--|

A|-2--2----2-3-2-0----5--0----10-10-10-10----0--0----9-10--9--|

D|-2--2---------------5--0----10-10-10-10----0--0-------------|

 

Bridge (x4) "I know (I know I know I know I know)"

E|-----------------------------------------------|

B|-----------------------------------------------|

G|11-12-11-12-11-12-11-12-11--5-5-5-5--7-7-7-7---|

D|-9--9--9--9--9--9--9--9--9--5-5-5-5--7-7-7-7---|

A|----------------------------3-3-3-3--5-5-5-5---|

D|-----------------------------------------------|

 

Outro (x1)

E|-------------------------------|

B|-------------------------------|

G|11--12--11--12--11--12--11--12-|

D|-9---9---9---9---9---9---9---9-|

A|-------------------------------|

D|-------------------------------|

 

And thats all the info you need to play the song.

Return to my Three Days Grace Guitar Tabs page

The Tablature is Copyright its respective owners.

Sign Up For My Newsletter
Subscribe | Unsubscribe

Site Map | Disclaimer | Privacy Policy | Media Kit | Submissions/Corrections

Website © 2000-2014 mattsmusicpage.com. All rights reserved.

Legal & DMCA: Matt's Music Page has been providing lyrics and tabs in a legal way, paying royalties each year to a few organizations. Then, all lyrics and tabs were removed from the site. Now, there's a new owner to the site, which purchased it August 26, 2014, and he is in negotiation to obtain licensing from BMI at the moment. If you have a specific DMCA request -- please do not hesitate to contact me via the contact button on top. I will do my very best to keep this site fully legal.

Get our toolbar!

 


Skeleton Playing Banjo Prop Animated 40 inch Halloween Decoration
$
Skeleton Playing Banjo Prop Animated 40 inch Halloween Decoration picture


Retro Banjo Frog on Skull Cigarette Case with lighter ID Holder Wallet
$
Retro Banjo Frog on Skull Cigarette Case with lighter ID Holder Wallet  picture


*Halloween* Postcard: Hare & Cat Playing Banjo Vintage Image~Reproduction
$
*Halloween* Postcard: Hare & Cat Playing Banjo Vintage Image~Reproduction  picture


Animated Dueling Banjo Skeletons, Play Music & Phrases,Light-Up LED Eyes IN HAND
$
Animated Dueling Banjo Skeletons, Play Music & Phrases,Light-Up LED Eyes IN HAND picture


SIGMA 1979 MUPPETS KERMIT THE FROG BANJO LILLY PAD POTPOURRI W TAG RATE INCENSE?
$
SIGMA 1979 MUPPETS KERMIT THE FROG BANJO LILLY PAD POTPOURRI W TAG RATE INCENSE? picture


Old WWII Banjo Style Gun Oiler Oil Can Army Military Chain Top
$
Old WWII Banjo Style Gun Oiler Oil Can Army Military Chain Top picture


Sweet Cig Case With Frog Playing Banjo Artwork Holds Kings & 100's DS
$
Sweet Cig Case With Frog Playing Banjo  Artwork Holds Kings & 100's DS picture


Halloween Animated Skeleton Playing Banjo I Wish I Was In Dixie 2013
$
Halloween Animated Skeleton Playing Banjo I Wish I Was In Dixie 2013 picture


Animated Dueling Banjo Skeletons
$
Animated Dueling Banjo Skeletons picture


1934 AL CAPONE SCARFACE JAIL PRISON MAFIA ALCATRAZ BANJO 8.5X11 PHOTO PICTURE
$
1934 AL CAPONE SCARFACE JAIL PRISON MAFIA  ALCATRAZ BANJO 8.5X11 PHOTO PICTURE picture