Your One-Stop Source For
Music Lyrics
Bass and Guitar Tabs
and More...
Music Lyrics Bass and Guitar Tabs

 

The Tabs Are Below

Learn To Read Tab
Chords Handbook
Corrections & Additions
Get Official Tab
Three Days Grace tabs @ 911Tabs

Band : Three Days Grace

Song : Let It Die

Album : One-X

Tuning: Drop D

 

Tabbed by Nasty Nate

 

Intro/ Verse (x2)

G/-------------------------------------/

D/-------------------------------------/

A/-------------------------------------/

D/-5-5-5----7-7-7----3-3-3----3-3-3----/

 

Prechorus (x2)

G/------------------------------------/

D/-2-2-2-2-2-2-2-2---3-3-3-3---5-5-5-5/

A/------------------------------------/

D/------------------------------------/

 

Chorus 1(x2)

G/-------------------------------------------------------------------/

D/-------------------------------------------------------------------/

A/-------------------------------------------------------------------/

D/-7-7---10-10-10---0---3-3---10-10---5---7-7---10-10---3-3-3-3---5-5/

 

Bridge Part 1 (x2) Bridge Part2 (x2)

G/-----------------------------------/-----------------------------------/

D/-----------------------------------/-----------------------------------/

A/-----------------------------------/-----------------------------------/

D/-0-0-0-0--2-2-2-2--3-3-3-3--5-5-5-5/-7-7-7-7--0-0-0-0--3-3-3-3--5-5-5-5/

 

Chorus 2

G/-----------------------------/-------------------------------/

D/-----------------------------/-------------------------------/

A/-7-7--10-10--9--3-3--10-10--5/-7-7--10-10--9--3-3-3--x-x--5-5/

D/-----------------------------/-------------------------------/

 

End Note

G/-----/

D/-----/

A/-5---/

D/-----/

Return to my Three Days Grace bass tabs page

The Tablature is Copyright its respective owners.

Sign Up For My Newsletter
Subscribe | Unsubscribe

Site Map | Disclaimer | Privacy Policy | Media Kit | Submissions/Corrections

Website © 2000-2014 mattsmusicpage.com. All rights reserved.

Legal & DMCA: Matt's Music Page has been providing lyrics and tabs in a legal way, paying royalties each year to a few organizations. Then, all lyrics and tabs were removed from the site. Now, there's a new owner to the site, which purchased it August 26, 2014, and he is in negotiation to obtain licensing from BMI at the moment. If you have a specific DMCA request -- please do not hesitate to contact me via the contact button on top. I will do my very best to keep this site fully legal.

Get our toolbar!