Your One-Stop Source For
Music Lyrics
Bass and Guitar Tabs
and More...
>Music Lyrics Bass and Guitar Tabs

 

The Three Days Grace Guitar Tabs Are Below

Learn To Read Tab
Chords Handbook
Corrections & Additions
Get Official Tab
Three Days Grace tabs @ 911Tabs

Three Days Grace

It's All Over

tabbed by U B the band

tuning C G C F A D

 

x-srcatch

b-bend

h-hammer on

p-pull off

/-slide up

 

Okay this tab has everything in it please comment, correct and/or rate-PMT

 

Intro: 00:31

D|--------------------------------|

A|--------------------------------|

F|--------------------------------|

C|--0-0-0--7-7-7--3-3-3--2-3-2-3--|

G|--0-0-0--7-7-7--3-3-3--2-3-2-3--|

C|--0-0-0--7-7-7--3-3-3--2-3-2-3--|x3

 

D|----------------------|

A|----------------------|

F|----------------------|

C|--5-5-5-5-5-5-5--3----|

G|--5-5-5-5-5-5-5--3----|

C|--5-5-5-5-5-5-5--3----|

 

Verse 1: 00:42 Palm Muted

D|--------------------------------------|

A|--------------------------------------|

F|--------------------------------------|

C|--0-0-0-0--7-7-7-7--3-3-3-3--2-3-2-3--|

G|--0-0-0-0--7-7-7-7--3-3-3-3--2-3-2-3--|

C|--0-0-0-0--7-7-7-7--3-3-3-3--2-3-2-3--|x3

 

D|--------------------------------|

A|--------------------------------|

F|--------------------------------|

C|--5-5-5-5-5-5-5--3-3-3-3-3-3-3--|

G|--5-5-5-5-5-5-5--3-3-3-3-3-3-3--|

C|--5-5-5-5-5-5-5--3-3-3-3-3-3-3--|

 

D|--------------------------------------|

A|--------------------------------------|

F|--------------------------------------|

C|--0-0-0-0--7-7-7-7--3-3-3-3--2-3-2-3--|

G|--0-0-0-0--7-7-7-7--3-3-3-3--2-3-2-3--|

C|--0-0-0-0--7-7-7-7--3-3-3-3--2-3-2-3--|x3

 

Pre-chorus: 01:02 Distorted

D|-------------------------------|

A|-------------------------------|

F|-------------------------------|

C|--5-5-5-5-5-5-5-5--8---xx--10--|

G|--5-5-5-5-5-5-5-5--8---xx--10--|

C|--5-5-5-5-5-5-5-5--8---xx--10--|

 

Chorus: Guitar 1 01:08

D|--------------------------------------------------------|

A|--------------------------------------------------------|

F|--------------------------------------------------------|

C|--0----8----5-5-5-5-5-5-5--10-10-10-10-10-10-10----3----|

G|--0----8----5-5-5-5-5-5-5--10-10-10-10-10-10-10----3----|

C|--0----8----5-5-5-5-5-5-5--10-10-10-10-10-10-10----3----|x2

 

Guitar 2 Fill-in:

D|---------------------------------|

A|-----10-----10------10-----------|

F|--7------7------12------10--9-5--|

C|---------------------------------|

G|---------------------------------|

C|---------------------------------|x2

 

Verse 2: 01:31 Palm Muted

D|--------------------------------------|

A|--------------------------------------|

F|--------------------------------------|

C|--0-0-0-0--7-7-7-7--3-3-3-3--2-3-2-3--|

G|--0-0-0-0--7-7-7-7--3-3-3-3--2-3-2-3--|

C|--0-0-0-0--7-7-7-7--3-3-3-3--2-3-2-3--|x3

 

D|--------------------------------|

A|--------------------------------|

F|--------------------------------|

C|--5-5-5-5-5-5-5--3-3-3-3-3-3-3--|

G|--5-5-5-5-5-5-5--3-3-3-3-3-3-3--|

C|--5-5-5-5-5-5-5--3-3-3-3-3-3-3--|

 

D|--------------------------------------|

A|--------------------------------------|

F|--------------------------------------|

C|--0-0-0-0--7-7-7-7--3-3-3-3--2-3-2-3--|

G|--0-0-0-0--7-7-7-7--3-3-3-3--2-3-2-3--|

C|--0-0-0-0--7-7-7-7--3-3-3-3--2-3-2-3--|x3

 

Pre-chorus: 01:51 Distorted

D|-------------------------------|

A|-------------------------------|

F|-------------------------------|

C|--5-5-5-5-5-5-5-5--8---xx--10--|

G|--5-5-5-5-5-5-5-5--8---xx--10--|

C|--5-5-5-5-5-5-5-5--8---xx--10--|

 

Chorus: Guitar 1 01:57

D|--------------------------------------------------------|

A|--------------------------------------------------------|

F|--------------------------------------------------------|

C|--0----8----5-5-5-5-5-5-5--10-10-10-10-10-10-10----3----|

G|--0----8----5-5-5-5-5-5-5--10-10-10-10-10-10-10----3----|

C|--0----8----5-5-5-5-5-5-5--10-10-10-10-10-10-10----3----|x2

 

Guitar 2 Fill-in:

D|---------------------------------|

A|-----10-----10------10-----------|

F|--7------7------12------10--9-5--|

C|---------------------------------|

G|---------------------------------|

C|---------------------------------|

 

D|-----------------------------------|

A|-----10-----10------10-------------|

F|--7------7------12------10--9--6b--|

C|-------------------------------7---|

G|-----------------------------------|

C|-----------------------------------|

 

Bridge: 02:20

D|--------------------------------|

A|--------------------------------|

F|--------------------------------|

C|--0-0-0--7-7-7--3-3-3--2-3-2-3--|

G|--0-0-0--7-7-7--3-3-3--2-3-2-3--|

C|--0-0-0--7-7-7--3-3-3--2-3-2-3--|x3

 

D|-------------------|

A|-------------------|

F|-------------------|

C|--5-5-5-5-8-8-8-8--|

G|--5-5-5-5-8-8-8-8--|

C|--5-5-5-5-8-8-8-8--|

 

Guitar 1 for solo: 02:32

D|----------------------------------------------------|

A|----------------------------------------------------|

F|----------------------------------------------------|

C|--0----8----5-5-5-5-5-5-5--10-10-10-10-10-10-10--3--|

G|--0----8----5-5-5-5-5-5-5--10-10-10-10-10-10-10--3--|

C|--0----8----5-5-5-5-5-5-5--10-10-10-10-10-10-10--3--|x2

 

Solo: Guitar 2 02:32

D|--15h17h18-18-17b-------------------------------------------------------|

A|------------------15h17h18-18-17p15--------------------------18-17-15---|

F|-----------------------------------17p15-14----14h15-15-14b14--------17-|

C|-------------------------------------------14b--------------------------|

G|------------------------------------------------------------------------|

C|------------------------------------------------------------------------|

 

D|--15h17h18-18-17b-------------------------------------------------------|

A|------------------15h17h18-18-17p15------------------------------18-17--|

F|-----------------------------------17p15-14----14h15-15-14h15/17--------|

C|-------------------------------------------14b--------------------------|

G|------------------------------------------------------------------------|

C|------------------------------------------------------------------------|

 

D|------------|

A|--15--------|

F|-----17-19--|

C|------------|

G|------------|

C|------------|

 

Chord played clean at 03:06

D|-------|

A|--6----|

F|--9----|

C|--0----|

G|--0----|

C|-------|

 

Pre-chorus: 03:12 Distorted

D|-------------------------------|

A|-------------------------------|

F|-------------------------------|

C|--5-5-5-5-5-5-5-5-10-10-10-10--|

G|--5-5-5-5-5-5-5-5-10-10-10-10--|

C|--5-5-5-5-5-5-5-5-10-10-10-10--|

 

Chorus/Outro: 03:17

D|--------------------------------------------------------|

A|--------------------------------------------------------|

F|--------------------------------------------------------|

C|--0----8----5-5-5-5-5-5-5--10-10-10-10-10-10-10----3----|

G|--0----8----5-5-5-5-5-5-5--10-10-10-10-10-10-10----3----|

C|--0----8----5-5-5-5-5-5-5--10-10-10-10-10-10-10----3----|x3

 

D|---------------------------------|

A|-----10-----10------10-----------|

F|--7------7------12------10--9-5--|

C|---------------------------------|

G|---------------------------------|

C|---------------------------------|x3

 

D|--------------------------------|

A|--------------------------------|

F|--------------------------------|

C|--0-0-0--7-7-7--3-3-3--2-3-2-3--|

G|--0-0-0--7-7-7--3-3-3--2-3-2-3--|

C|--0-0-0--7-7-7--3-3-3--2-3-2-3--|

 

FINISHED! I hope you liked it-PMT

Return to my Three Days Grace Guitar Tabs page

The Tablature is Copyright its respective owners.

Sign Up For My Newsletter
Subscribe | Unsubscribe

Site Map | Disclaimer | Privacy Policy | Media Kit | Submissions/Corrections

Website © 2000-2014 mattsmusicpage.com. All rights reserved.

Legal & DMCA: Matt's Music Page has been providing lyrics and tabs in a legal way, paying royalties each year to a few organizations. Then, all lyrics and tabs were removed from the site. Now, there's a new owner to the site, which purchased it August 26, 2014, and he is in negotiation to obtain licensing from BMI at the moment. If you have a specific DMCA request -- please do not hesitate to contact me via the contact button on top. I will do my very best to keep this site fully legal.

Get our toolbar!

 

Vintage Retro Atomic Mid-Century Lamp Fiberglass Drum Shade SNOWFLAKE DESIGN
$29.95
Vintage Retro Atomic Mid-Century Lamp Fiberglass Drum Shade SNOWFLAKE DESIGN picture


Old Disney Pin Magical Musical Moments Mickey Mouse Club March Band Minnie Drum
$34.99
Old Disney Pin Magical Musical Moments Mickey Mouse Club March Band Minnie Drum picture


Vintage Hand Carved Haitian./African Drum Player Sculpture/Statue
$9.95
Vintage Hand Carved Haitian./African Drum Player Sculpture/Statue picture


Vintage Anri Christmas Carol Music Box plays Little Drummer Boy - 2 Kids & Drums
$49.99
Vintage Anri Christmas Carol Music Box plays Little Drummer Boy - 2 Kids & Drums picture


Vintage Hand Carved Haitian./African Drum Player Sculpture/Statue
$9.95
Vintage Hand Carved Haitian./African Drum Player Sculpture/Statue picture