Your One-Stop Source For
Music Lyrics
Bass and Guitar Tabs
and More...
>Music Lyrics Bass and Guitar Tabs

 

The Three Days Grace Guitar Tabs Are Below

Learn To Read Tab
Chords Handbook
Corrections & Additions
Get Official Tab
Three Days Grace tabs @ 911Tabs

Three Days Grace

Track 1

 

 

 

E E E E E E E E E E E E E E E E

E||----------------------------------|---------------------------------|

B||----------------------------------|---------------------------------|

G||--11--11--11--11--11--11--11--11--|--11--11--11--11--11--11--11-----|

D||---9---9---9---9---9---9---9---9--|---9---9---9---9---9---9---9-----|

A||---9---9---9---9---9---9---9---9--|---9---9---9---9---9---9---9-----|

D||---9---9---9---9---9---9---9---9--|---9---9---9---9---9---9---9-----|

 

 

Don't know what's go- ing on

E E E E E E E S S

------------------------------------------|

------------------------------------------|

--11--11----11---11-----11--11--11--11-11-|

---9---9-----9----9------9---9---9---9--9-|

---9---9-----9----9------9---9---9---9--9-|

---9---9-----9----9------9---9---9---9--9-|

 

 

Don't know what went wrong Feels like a hundred years I

E E E E E E Q E E E E E E E E

--------------------------------------|---------------------------------------|

--------------------------------------|---------------------------------------|

--9-----9----9----9----9-----9--------|--7--7-----7----7--7-------7-----7--7--|

--7-----7----7----7----7-----7--0-----|--5--5-----5----5--5-------5-----5--5--|

--7-----7----7----7----7-----7--0-----|--5--5-----5----5--5-------5-----5--5--|

--7-----7----7----7----7-----7--0~----|--5--5-----5----5--5-------5-----5--5--|

 

 

Still can't believe you're gone

E E E E E E Q

------------------------------------------|

--3--3-----3-----3-------3------3---------|

--2--2-----2-----2-------2------2----6----|

--0--0-----0-----0-------0------0----4----|

--0--0-----0-----0-------0------0----4----|

--0--0-----0-----0-------0------0----4----|

 

 

So I'll stay up all night

E E E E E E E S S

----------------------------------------|

----------------------------------------|

--11--11--11---11---11--11--11----11-11-|

---9---9---9----9----9---9---9-----9--9-|

---9---9---9----9----9---9---9-----9--9-|

---9---9---9----9----9---9---9-----9--9-|

 

 

With these bloodshot eyes

E E E E E E Q

----------------------------------------|

----------------------------------------|

--9--9----9-----9--9---------9----------|

--7--7----7-----7--7---------7----0-----|

--7--7----7-----7--7---------7----0-----|

--7--7----7-----7--7---------7----0~----|

 

 

While these walls sur- round me with the story of our life

E E E E E E E E E E E E E E E E

----------------------------------------|-----------------------------------|

----------------------------------------|--3--3--3----3---------------------|

--7--7-----7--7-----7--7-----7----7-----|--2--2--2----2---9-----9--9---9----|

--5--5-----5--5-----5--5-----5----5-----|--0--0--0----0---7-----7--7---7----|

--5--5-----5--5-----5--5-----5----5-----|--0--0--0----0---7-----7--7---7----|

--5--5-----5--5-----5--5-----5----5-----|--0--0--0----0---7-----7--7---7----|

 

 

E E E E E E E E W

--------------------------|--0----------------|

--------------------------|--7----------------|

--4--4--4--4--6--6--6--6--|--7----------------|

--2--2--2--2--4--4--4--4--|--5----------------|

--2--2--2--2--4--4--4--4--|--5----------------|

--2--2--2--2--4--4--4--4--|--5----------------|

 

 

I feel+so much better Now that you're gone forever

E E Q E E Q E E E E E E E E

-----------------------------------|----------------------------------------|

-----------------------------------|----------------------------------------|

-----------------------------------|----------------------------------------|

--4--4------------5----5-----------|--0---0----0------0--7----7--7-------7--|

--4--4------------5----5-----------|--0---0----0------0--7----7--7-------7--|

--4--4------------5----5-----------|--0---0----0------0--7----7--7-------7--|

 

 

I tell+my- self that+I don't miss you at all

E E Q E E Q E E E Q E E E

------------------------------------|--------------------------------|

------------------------------------|--------------------------------|

------------------------------------|--------------------------------|

--4--4-------------5----5-----------|--0-----0----0---7----7---7--7--|

--4--4-------------5----5-----------|--0-----0----0---7----7---7--7--|

--4--4-------------5----5-----------|--0-----0----0---7----7---7--7--|

 

 

not ly- ing, de- ny- ing that I feel so much

E E E E E E E E E E E E E E E E

---------------------------------|--------------------------------|

---------------------------------|--------------------------------|

---------------------------------|--------------------------------|

--9---9---9----9--5--5---5---5---|--0----0--0----0--7--7--7----7--|

--9---9---9----9--5--5---5---5---|--0----0--0----0--7--7--7----7--|

--9---9---9----9--5--5---5---5---|--0----0--0----0--7--7--7----7--|

 

 

better now That you're gone for- ev- er

E E E E E E Q Q. Q. Q W

----------------------------------|---------------------|-------------------|

----------------------------------|---------------------|-------------------|

----------------------------------|---------------------|-------------------|

--5------5--5---5--5----5--5------|--4------5------7----|--9----------------|

--5------5--5---5--5----5--5------|--4------5------7----|--9----------------|

--5------5--5---5--5----5--5------|--4------5------7----|--9----------------|

 

 

Now things are coming clear

W E E E E E E E S S

-------------------|---------------------------------------------|

-------------------|---------------------------------------------|

-------------------|--11--11--11-----11--11--11--11-----11-11----|

--L----------------|---9---9---9------9---9---9---9------9--9----|

--L----------------|---9---9---9------9---9---9---9------9--9----|

--L----------------|---9---9---9------9---9---9---9------9--9----|

 

 

And I don't need you here And in this world a- round me

E E E E E E Q E E E E E E E E

---------------------------------|-----------------------------------|

---------------------------------|-----------------------------------|

--9---9--9-----9--9----9---------|--7---7--7----7-----7--7--7-----7--|

--7---7--7-----7--7----7---0-----|--5---5--5----5-----5--5--5-----5--|

--7---7--7-----7--7----7---0-----|--5---5--5----5-----5--5--5-----5--|

--7---7--7-----7--7----7---0~----|--5---5--5----5-----5--5--5-----5--|

 

 

I'm glad you dis- app- eared So I'll stay out all night

E E E E E E Q E E E E E E E S S

------------------------------------|----------------------------------------|

--3---3----3---3----3----3----------|----------------------------------------|

--2---2----2---2----2----2-----6----|--11--11---11---11--11--11--11----11-11-|

--0---0----0---0----0----0-----4----|---9---9----9----9---9---9---9-----9--9-|

--0---0----0---0----0----0-----4----|---9---9----9----9---9---9---9-----9--9-|

--0---0----0---0----0----0-----4----|---9---9----9----9---9---9---9-----9--9-|

 

 

Get drunk & fuck & fight Until the morn- ing comes

E E E E E E Q E E E E E E E E

--------------------------------|-------------------------------------|

--------------------------------|-------------------------------------|

--9---9--9-----9--9----9--------|--7-----7--7---7--7-----7---7--7-----|

--7---7--7-----7--7----7--0-----|--5-----5--5---5--5-----5---5--5-----|

--7---7--7-----7--7----7--0-----|--5-----5--5---5--5-----5---5--5-----|

--7---7--7-----7--7----7--0~----|--5-----5--5---5--5-----5---5--5-----|

 

 

I'll- For- get a- bout our life

E E E E E E E E E E E E E E E E

-----------------------------------|----------------------------|

--3-----3----3---3-----------------|----------------------------|

--2-----2----2---2--9--9----9--9---|--4--4----4--4--6--6--6--6--|

--0-----0----0---0--7--7----7--7---|--2--2----2--2--4--4--4--4--|

--0-----0----0---0--7--7----7--7---|--2--2----2--2--4--4--4--4--|

--0-----0----0---0--7--7----7--7---|--2--2----2--2--4--4--4--4--|

 

 

I feel+so much better

W E E Q E E Q

--0----------------|-----------------------------------|

--7----------------|-----------------------------------|

--7----------------|-----------------------------------|

--5----------------|--4--4------------5----5-----------|

--5----------------|--4--4------------5----5-----------|

--5----------------|--4--4------------5----5-----------|

 

 

Now that you're gone forever I tell+my- self that+I

E E E E E E E E E E Q E E Q

----------------------------------------|------------------------------------|

----------------------------------------|------------------------------------|

----------------------------------------|------------------------------------|

--0---0----0------0--7----7--7-------7--|--4--4-------------5----5-----------|

--0---0----0------0--7----7--7-------7--|--4--4-------------5----5-----------|

--0---0----0------0--7----7--7-------7--|--4--4-------------5----5-----------|

 

 

don't miss you at all not ly- ing, de- ny- ing

E E E Q E E E E E E E E E E E

--------------------------------|---------------------------------|

--------------------------------|---------------------------------|

--------------------------------|---------------------------------|

--0-----0----0---7----7---7--7--|--9---9---9----9--5--5---5---5---|

--0-----0----0---7----7---7--7--|--9---9---9----9--5--5---5---5---|

--0-----0----0---7----7---7--7--|--9---9---9----9--5--5---5---5---|

 

 

that I feel so much better now That you're

E E E E E E E E E E E E E E Q

--------------------------------|----------------------------------|

--------------------------------|----------------------------------|

--------------------------------|----------------------------------|

--0----0--0----0--7--7--7----7--|--5------5--5---5--5----5--5------|

--0----0--0----0--7--7--7----7--|--5------5--5---5--5----5--5------|

--0----0--0----0--7--7--7----7--|--5------5--5---5--5----5--5------|

 

 

gone for- ev- er

Q. Q. Q H. S S S S

---------------------|-----------------------|

---------------------|-----------------------|

---------------------|-----------------------|

--4------5------7----|--9--------------------|

--4------5------7----|--9------------5-4-2-0-|

--4------5------7----|--9--------------------|

 

 

First time you scream- ed at me I should have made you leave

E E E E E E E E E E E E E E S S S S

-------------------------------------|-----------------------------------------|

-------------------------------------|-----------------------------------------|

--4--4-----4----4---4-------4--4--4--|--11--11-----11---11---11--11------------|

--2--2-----2----2---2-------2--2--2--|---9---9------9----9----9---9------------|

--2--2-----2----2---2-------2--2--2--|---9---9------9----9----9---9----5-4-2-0-|

--2--2-----2----2---2-------2--2--2--|---9---9------9----9----9---9------------|

 

 

I should have known it could be so much bet- ter

E E E E E E E E E E E E E E S S S S

--------------------------------------|------------------------------------|

--------------------------------------|------------------------------------|

--4--4------4----4-----4--4--4-----4--|--11--11--11---11--9----9-----------|

--2--2------2----2-----2--2--2-----2--|---9---9---9----9--7----7-----------|

--2--2------2----2-----2--2--2-----2--|---9---9---9----9--7----7---5-4-2-0-|

--2--2------2----2-----2--2--2-----2--|---9---9---9----9--7----7-----------|

 

 

I hope you- 're miss- ing me I hope I've made you

E E E E E E E E E E E E E E E E

-----------------------------------|-------------------------------------|

-----------------------------------|-------------------------------------|

--4--4----4--4----4---4-----4---4--|--11--11---11---11--11---11--11--11--|

--2--2----2--2----2---2-----2---2--|---9---9----9----9---9----9---9---9--|

--2--2----2--2----2---2-----2---2--|---9---9----9----9---9----9---9---9--|

--2--2----2--2----2---2-----2---2--|---9---9----9----9---9----9---9---9--|

 

 

see That I'm gone for- ev- er

E E E E E Q. Q. Q. Q W

----------------------------|---------------------|-------------------|

----------------------------|---------------------|-------------------|

----------------------------|---------------------|-------------------|

--5---5--5----5---5--5------|--4------5------7----|--9----------------|

--5---5--5----5---5--5------|--4------5------7----|--9----------------|

--5---5--5----5---5--5------|--4------5------7----|--9----------------|

 

 

And now it's com- ing clear That I don't need you here

E E E E E E E S S E E E E E E Q

----------------------------------------|----------------------------------|

----------------------------------------|----------------------------------|

--11--11--11--11---11---11--11----11-11-|--9----9--9-----9--9----9---------|

---9---9---9---9----9----9---9-----9--9-|--7----7--7-----7--7----7---0-----|

---9---9---9---9----9----9---9-----9--9-|--7----7--7-----7--7----7---0-----|

---9---9---9---9----9----9---9-----9--9-|--7----7--7-----7--7----7---0~----|

 

 

And in this world a- round me I'm glad you dis- app- eared

E E E E E E E E E E E E E E Q

-----------------------------------|------------------------------------|

-----------------------------------|--3---3----3---3----3----3----------|

--7---7--7----7--7-----7--7-----7--|--2---2----2---2----2----2-----6----|

--5---5--5----5--5-----5--5-----5--|--0---0----0---0----0----0-----4----|

--5---5--5----5--5-----5--5-----5--|--0---0----0---0----0----0-----4----|

--5---5--5----5--5-----5--5-----5--|--0---0----0---0----0----0-----4----|

 

 

Feedback

I feel+so much better

W E E Q E E Q

---------------------|-----------------------------------|

---------------------|-----------------------------------|

--(6)----------------|-----------------------------------|

--(4)----------------|--4--4------------5----5-----------|

--(4)----------------|--4--4------------5----5-----------|

--(4)----------------|--4--4------------5----5-----------|

 

 

Now that you're gone forever I tell+my- self that+I

E E E E E E E E E E Q E E Q

----------------------------------------|------------------------------------|

----------------------------------------|------------------------------------|

----------------------------------------|------------------------------------|

--0---0----0------0--7----7--7-------7--|--4--4-------------5----5-----------|

--0---0----0------0--7----7--7-------7--|--4--4-------------5----5-----------|

--0---0----0------0--7----7--7-------7--|--4--4-------------5----5-----------|

 

 

don't miss you at all not ly- ing, de- ny- ing

E E E Q E E E E E E E E E E E

--------------------------------|---------------------------------|

--------------------------------|---------------------------------|

--------------------------------|---------------------------------|

--0-----0----0---7----7---7--7--|--9---9---9----9--5--5---5---5---|

--0-----0----0---7----7---7--7--|--9---9---9----9--5--5---5---5---|

--0-----0----0---7----7---7--7--|--9---9---9----9--5--5---5---5---|

 

 

that I feel so much better now That you're gone for-

E E E E E E E E E E E E E E Q

------------------------------------|----------------------------------|

------------------------------------|----------------------------------|

------------------------------------|----------------------------------|

--0----0--0----0--7--7----7--7------|--5---5--5----5--5------5----5----|

--0----0--0----0--7--7----7--7------|--5---5--5----5--5------5----5----|

--0----0--0----0--7--7----7--7------|--5---5--5----5--5------5----5----|

 

 

ev- er And now you're gone for- ev- er

Q. Q. Q E E E E E E Q Q. Q. Q

---------------------|-------------------------------|---------------------|

---------------------|-------------------------------|---------------------|

---------------------|-------------------------------|---------------------|

--4------5------7----|--5---5--5---5--5------5--5----|--4------5------7----|

--4------5------7----|--5---5--5---5--5------5--5----|--4------5------7----|

--4------5------7----|--5---5--5---5--5------5--5----|--4------5------7----|

 

 

And now you're gone for- ev- er

E E E E E E Q Q. Q. Q

-------------------------------|---------------------|

-------------------------------|---------------------|

-------------------------------|---------------------|

--5---5--5---5--5------5--5----|--4------5------7----|

--5---5--5---5--5------5--5----|--4------5------7----|

--5---5--5---5--5------5--5----|--4------5------7----|

 

 

E E E E E E E E E E E E E E E E

----------------------------|--------------------------|

--------3p--0--------3p--0--|--------3-----------------|

----------------------------|-----------------------2--|

-----4----------------------|-----------4-----2--4-----|

--2---------------5---------|-----0--------0-----------|

---------------5------------|--0-----------------------|

 

 

^

E E E E E E Q E E E E E E E E W

--------------------------|------------------------------|---0----------------|

--------3p--0-------------|--------(3)--(0)--------------|---0----------------|

--------------------------|------------------------------|--11----------------|

-----0---------4--5-------|------------------------------|---9----------------|

--------------------------|-----4---------------5-----7--|---9----------------|

--5------------------5----|--4---------------5-----7-----|---9----------------|

 

 

W

---L----------------||

---L----------------||

---L----------------||

---L----------------||

---L----------------||

---L----------------||

 

 

 

 

Duration Legend

---------------

W - whole

H - half

Q - quarter

E - 8th

S - 16th

T - 32nd

X - 64th

. - note dotted

|-n-| - n-tuplets

 

 

Tablature Legend

----------------

L - tied note

x - dead note

g - grace note

(n) - ghost note

> - accentuded note

NH - natural harmonic

AH - artificial harmonic

TH - tapped harmonic

SH - semi harmonic

PH - pitch harmonic

h - hammer on

p - pull off

b - bend

br - bendRelease

pb - preBend

pbr - preBendRelease

brb - bendReleaseBend

\n/ - tremolo bar dip

\n - tremolo bar dive

-/n - tremolo bar Release up

/n\ - tremolo bar inverted dip

/n - tremolo bar return

-\n - tremolo bar Release down

S - shift slide

s - legato slide

/ - slide into from below or out of upwards

\ - slide into from above or out of downwards

~ - vibrato

W - wide vibrato

tr - trill

TP - tremolo picking

T - tapping

S - slap

P - pop

< - fade in

^ - brush up

v - brush down

 

Return to my Three Days Grace Guitar Tabs page

The Tablature is Copyright its respective owners.

Sign Up For My Newsletter
Subscribe | Unsubscribe

Site Map | Disclaimer | Privacy Policy | Media Kit | Submissions/Corrections

Website © 2000-2014 mattsmusicpage.com. All rights reserved.

Legal & DMCA: Matt's Music Page has been providing lyrics and tabs in a legal way, paying royalties each year to a few organizations. Then, all lyrics and tabs were removed from the site. Now, there's a new owner to the site, which purchased it August 26, 2014, and he is in negotiation to obtain licensing from BMI at the moment. If you have a specific DMCA request -- please do not hesitate to contact me via the contact button on top. I will do my very best to keep this site fully legal.

Get our toolbar!

 

Disney WDW Polynesian Resort Donald Playing Banjo & Hula Dancing Mickey Pin 2003
$29.99
Disney WDW Polynesian Resort Donald Playing Banjo & Hula Dancing Mickey Pin 2003 picture


New Haven 8Day Banjo
$29.0
New Haven 8Day Banjo picture


Case XX Kentucky Blue Grass Jig Bone Stockman Knife W/ Banjo Shield NIB 2013
$51.0
Case XX Kentucky Blue Grass Jig Bone Stockman Knife W/ Banjo Shield NIB 2013 picture


215W STEVE MARTIN BANJO Harry Langdon Negative w/rights
$24.99
215W STEVE MARTIN BANJO Harry Langdon Negative w/rights picture


Glee Club Program TUFTS COLLEGE BANJO 1891 Brown University Mandolin Providence
$18.91
Glee Club Program TUFTS COLLEGE BANJO 1891 Brown University Mandolin Providence picture