Your One-Stop Source For
Music Lyrics
Bass and Guitar Tabs
and More...
>Music Lyrics Bass and Guitar Tabs

 

The Three Days Grace Guitar Tabs Are Below

Learn To Read Tab
Chords Handbook
Corrections & Additions
Get Official Tab
Three Days Grace tabs @ 911Tabs

Three Days Grace - "Get Out Alive"

Album: One-X

 

Tabbed by: Sicfreak91

 

Another song by TDG that I got down on an acoustic ...

 

Tuning: Drop D

 

Intro: (clean)

|---------------------------------------------------------------|

|---------------------------------------------------------------|

|---------------------------------------------------------------|

|----0-----0------0-----0------0-----0------0-------------------|

|-------5~---5-6~----3~---3-5~----1~---1-3~----0-1-0~-----------|

|-5~--0------------0------------0------------0------------------|x2

 

 

Verse 1: (clean)

|---------------------------------------------------------------|

|---------------------------------------------------------------|

|---------------------------------------------------------------|

|----0-----0------0-----0------0-----0------0-------------------|

|-------5~---5-6~----3~---3-5~----1~---1-3~----0-1-0~-----------|

|-5~--0------------0------------0------------0------------------|x3

 

 

Chorus 1: (clean)

|---------------------------------------------------------------|

|---------------------------------------------------------------|

|------0~-------0~-------0~-------0~----------------------------|

|----0~-------0~-------0~-------0~------------------------------|

|-5~-------1~-------3~-------5~---------------------------------|

|-5~-------1~-------3~-------5~---------------------------------|x2

 

 

Verse 2: Same as verse 1 x3

 

Chorus 2: Same as chorus 1 x4

 

 

Bridge: (distorted)

|---------------------------------------------------------------|

|---------------------------------------------------------------|

|-1010101010101010--22222222--77777777--33333333-----------------

|--8-8-8-8-8-8-8-8--00000000--55555555--11111111----------------|

|--8-8-8-8-8-8-8-8--00000000--55555555--11111111----------------|

|--8-8-8-8-8-8-8-8--00000000--55555555--11111111----------------|x2

 

 

Re-intro: same as intro (with a pedal effect) x1

 

 

Breakdown: (distorted)

|---------------------------------------------------------------|

|---------------------------------------------------------------|

|---------------------------------------------------------------|

|-87-5-5--0-0--13-13--10-10--0-0--8-8--10-10-------8-7-5--------|

|-87-5-5--0-0--13-13--10-10--0-0--8-8--10-10-------8-7-5--------|

|-87-5-5--0-0--13-13--10-10--0-0--8-8--10-10-(x2)--8-7-5-(x1)----

 

 

Chorus 3:

Guitar 1: (clean)

|---------------------------------------------------------------|

|---------------------------------------------------------------|

|----0--------0--------0--------0-------------------------------|

|---0--0~----0--0~----0--0~----0--0~----------------------------|

|-5~-------1~-------3~-------5~---------------------------------|

|-5~-------1~-------3~-------5~---------------------------------|x4

 

Guitar 2: (distorted) comes in after x2 of Guitar 1 riff

|---------------------------------------------------------------|

|---------------------------------------------------------------|

|---------------------------------------------------------------|

|-55555555-11111111-33333333-55555555---------------------------|

|-55555555-11111111-33333333-55555555---------------------------|

|-55555555-11111111-33333333-55555555---------------------------|x2

 

 

Bridge 2: (distorted)

|---------------------------------------------------------------|

|---------------------------------------------------------------|

|-1010101010101010--22222222--77777777--33333333-----------------

|--8-8-8-8-8-8-8-8--00000000--55555555--11111111----------------|

|--8-8-8-8-8-8-8-8--00000000--55555555--11111111----------------|

|--8-8-8-8-8-8-8-8--00000000--55555555--11111111----------------|x4

 

 

Outro: (distorted)

|---------------------------------------------------------------|

|---------------------------------------------------------------|

|---------------------------------------------------------------|

|-87-5-5--0-0--13-13--10-10--0-0--8-8--10-10-------8-7-5~~~-----|

|-87-5-5--0-0--13-13--10-10--0-0--8-8--10-10-------8-7-5~~~-----|

|-87-5-5--0-0--13-13--10-10--0-0--8-8--10-10-(x3)--8-7-5~~~--(x1)

 

Return to my Three Days Grace Guitar Tabs page

The Tablature is Copyright its respective owners.

Sign Up For My Newsletter
Subscribe | Unsubscribe

Site Map | Disclaimer | Privacy Policy | Media Kit | Submissions/Corrections

Website © 2000-2014 mattsmusicpage.com. All rights reserved.

Legal & DMCA: Matt's Music Page has been providing lyrics and tabs in a legal way, paying royalties each year to a few organizations. Then, all lyrics and tabs were removed from the site. Now, there's a new owner to the site, which purchased it August 26, 2014, and he is in negotiation to obtain licensing from BMI at the moment. If you have a specific DMCA request -- please do not hesitate to contact me via the contact button on top. I will do my very best to keep this site fully legal.

Get our toolbar!

 

ROLLING STONES MUSICAL GUITAR ORNAMENT I'M FREE NEW ITEM 2014
$4.99
ROLLING STONES MUSICAL GUITAR ORNAMENT I'M FREE NEW ITEM 2014 picture


UDF Mickey Mouse Guitar Medicomtoy Ultra Detail Figure Disney
$46.88
UDF Mickey Mouse Guitar Medicomtoy Ultra Detail Figure Disney picture


UDF MICKEY MOUSE GUITAR MedicomToy Ultra Detail Figure Disney Roen collection
$46.88
UDF MICKEY MOUSE GUITAR MedicomToy Ultra Detail Figure Disney Roen collection picture


Black Bear Clown With Guitar Figurine Northwoods Cabin & Home Decor New
$24.99
 Black Bear Clown With Guitar  Figurine Northwoods Cabin & Home Decor New picture


Guitar Player Metal Nuts and Bolts Musician Figurine NIB
$25.99
Guitar Player Metal Nuts and Bolts Musician Figurine NIB picture