Your One-Stop Source For
Music Lyrics
Bass and Guitar Tabs
and More...
Music Lyrics Bass and Guitar Tabs

 

The Tabs Are Below

Learn To Read Tab
Chords Handbook
Corrections & Additions
Get Official Tab
Three Days Grace tabs @ 911Tabs

Three Days Grace - Burn from "Live in Brazil" Limited Edition CD/DVD

Tabbed by Nathan W.

Drop-D Tuning DADGBE

 

This is my second 3DG tab and the version 1 tab was great, but I've once again whipped

the live DVD and done some eye and ear transciptions. ***This is it, strum forstrum, the

entire song***

 

There are notes posted above a few measure to assure that you are playing it right,

3DG plays it!

 

Thanks - Comments welcome.

2/17/05 - Made a few corrections to intro, pre-chorus, verses, bridge, and outro!!

 

INTRO - Part 1A

|---------------------------------------------|

|---------------------------------------------|

|---------------------------------------------|

|---------------------------------------------| 3X

|-0-10-12-0-12-10-0-10-12-0-12-10-0-10-12-13--|

|-0-10-12-0-12-10-0-10-12-0-12-10-0-10-12-13--|

 

INTRO - Part 1B

|---------------------------------------|

|---------------------------------------|

|---------------------------------------|

|---------------------------------------| 1X

|-0-10-12-0-12-10-0-10-12/0-------------|

|-0-10-12-0-12-10-0-10-12/0-------------|

 

INTRO - Part 2

On the last two strums of each measure similar to this one, they slide from "12 to 13,"

both notes - no hammer on is needed in the whole song.

|--------------------------------------------|

|--------------------------------------------|

|--------------------------------------------|

|-0-10-12--12-10-0-10-12--12-10--10--12-13---| 4X

|-0-10-12--12-10-0-10-12--12-10--10--12-13---|

|-0-10-12--12-10-0-10-12--12-10--10--12-13---|

 

INTRO - Part 3

In the parts of the song when either two (like below) or three open "000" chords are hit

beginning of the measure, when you get to the "12 to 13," notes again, hit the 12 the

(you would usually hit it with your middle finger) and then use your middle to hit the 13.

 

|--------------------------------------|

|--------------------------------------|

|--------------------------------------|

|-0--0--12-10--0-12--0-10--0-12-13-----| 3X

|-0--0--12-10--0-12--0-10--0-12-13-----|

|-0--0--12-10--0-12--0-10--0-12-13-----|

 

|------------------------------------------|

|------------------------------------------|

|------------------------------------------|

|-0--0--12-10--0-12/0----------------------| 1X

|-0--0--12-10--0-12/0----------------------|

|-0--0--12-10--0-12/0----------------------|

 

VERSE

When Barry get to the "18's," just strum the note over and over again until the verse.

the open A string is optional for the verse in the first 14 strums!

 

Barry Stock v - Very fast tremolo effect on these!

|-------------------------18-18-18-18-------|

|-------------------------------------------|etc

|--7--------8-------------------------------|

|--0--13x---0--1X---------------------------|

|-------------------------------------------|

|-------------------------------------------|

 

Adam Gontier (note: this part was told to me by MITCH WEBB - Thanks man!!)

|-------------------------------------------|

|-------------------------------------------|

|--1--------2-------------------------------|

|--0--13x---0--1X---------------------------|

|-------------------------------------------|

|-------------------------------------------|

 

PRE-CHORUS

|------------------------------------------|

|-5----------------------------------------|

|-5----------------------------------------|

|-3----------7-7-7-7-8-7-7-7-8-10----------|

|-3----------7-7-7-7-8-7-7-7-8-10----------|

|-3----------7-7-7-7-8-7-7-7-8-10----------|

 

CHORUS

|----------------------------------------------------------------------|

|----------------------------------------------------------------------|

|-------------------------0--------------------------------------------|

|-0--0--7-7----10----10---0-5-5--5---5-3---3-1---7-7-7-7-8-7-7-7-8-10--| 2X

|-0--0--7-7----8-----8----0-5-5--5---5-3---3-1---7-7-7-7-8-7-7-7-8-10--|

|-0--0--7-7----8-----8----0-5-5--5---5-3---3-1---7-7-7-7-8-7-7-7-8-10--|

^Yes, he hit the open G string as well.

VERSE 4X

PRE-CHORUS 1X

CHORUS 2X

 

BRIDGE

Part 1A

|---------------------------------------------|

|---------------------------------------------|

|---------------------------------------------|

|---------------------------------------------| 2X

|-0-10-12-0-12-10-0-10-12-0-12-10-0-10-12-13--|

|-0-10-12-0-12-10-0-10-12-0-12-10-0-10-12-13--|

 

Part 1B

|--------------------------------------------|

|--------------------------------------------|

|--------------------------------------------|

|-0-10-12--12-10-0-10-12--12-10--10--12-13---| 2X

|-0-10-12--12-10-0-10-12--12-10--10--12-13---|

|-0-10-12--12-10-0-10-12--12-10--10--12-13---|

 

Part 1C

 

Barry Stock v-1/4 bend v-1/2 bend

|-------------------------------------------------|

|------------------------9--9-(8X)----9-(6X)----9-|

|--7--------8-------------------------------------|

|--0--13x---0--1X---------------------------------|

|-------------------------------------------------|

|-------------------------------------------------|

 

Adam Gontier (note: this part was told to me by MITCH WEBB - Thanks man!!)

|-------------------------------------------|

|-------------------------------------------|

|--1--------2-------------------------------|

|--0--13x---0--1X---------------------------|

|-------------------------------------------|

|-------------------------------------------|

 

v-1/4 bend v-1/2 bend

|-------------------------------------------------|

|------------------------9--9-(8X)----9-(6X)----9-|

|--7--------8-------------------------------------|

|--0--13x---0--1X---------------------------------|

|-------------------------------------------------|

|-------------------------------------------------|

 

Adam Gontier (note: this part was told to me by MITCH WEBB - Thanks man!!)

|-------------------------------------------|

|-------------------------------------------|

|--1--------2-------------------------------|

|--0--13x---0--1X---------------------------|

|-------------------------------------------|

|-------------------------------------------|

 

Part 1D

|---------------------------------------------------|

|---------------------------------------------------|

|---------------------------------------------------|

|--3-----5------3-------7-7-7-7-7-------------------| 1X

|--3-----5------3-------7-7-7-7-7-------------------|

|--3-----5------3-------7-7-7-7-7-------------------|

 

CHORUS 2X

 

OUTRO

Part 1A

|---------------------------------------------|

|---------------------------------------------|

|---------------------------------------------|

|---------------------------------------------| 2X

|-0-10-12-0-12-10-0-10-12-0-12-10-0-10-12-13--|

|-0-10-12-0-12-10-0-10-12-0-12-10-0-10-12-13--|

 

Part 1B

|--------------------------------------------|

|--------------------------------------------|

|--------------------------------------------|

|-0-10-12--12-10-0-10-12--12-10--10--12-13---| 2X

|-0-10-12--12-10-0-10-12--12-10--10--12-13---|

|-0-10-12--12-10-0-10-12--12-10--10--12-13---|

 

Part 1C

|-------------------------------------|

|-------------------------------------|

|-------------------------------------|

|-0-12-10-0-10-12--12-10--10--12-13---|

|-0-12-10-0-10-12--12-10--10--12-13---|

|-0-12-10-0-10-12--12-10--10--12-13---|

 

Part 1D

|--------------------------------------------|

|--------------------------------------------|

|--------------------------------------------|

|-0-10-12--12-10-0-10-12--12-10--10--12-13---|

|-0-10-12--12-10-0-10-12--12-10--10--12-13---|

|-0-10-12--12-10-0-10-12--12-10--10--12-13---|

 

Part 2A

|---------------------------------------------|

|---------------------------------------------|

|---------------------------------------------|

|-------0-0-12-10-0-10-12--12-10--10--12-13---| 3X

|-------0-0-12-10-0-10-12--12-10--10--12-13---|

|-------0-0-12-10-0-10-12--12-10--10--12-13---|

 

Part 2B

|-------------------------------------------|

|-------------------------------------------|

|-------------------------------------------|

|-------0-0-12-10-0-10--12-12-10-10-12-13---|

|-------0-0-12-10-0-10--12-12-10-10-12-13---|

|-------0-0-12-10-0-10--12-12-10-10-12-13---|

 

Part 3A

|---------------------------------------|

|---------------------------------------|

|---------------------------------------|

|-0-0-0--12-10--0-12--0-10--10-12-13----| 4X

|-0-0-0--12-10--0-12--0-10--10-12-13----|

|-0-0-0--12-10--0-12--0-10--10-12-13----|

 

That's all - Please rate this one for me!!!

 

 

Return to my Three Days Grace tabs page

The Tablature is Copyright its respective owners.

Sign Up For My Newsletter
Subscribe | Unsubscribe

Site Map | Disclaimer | Privacy Policy | Media Kit | Submissions/Corrections

Website © 2000-2014 mattsmusicpage.com. All rights reserved.

Legal & DMCA: Matt's Music Page has been providing lyrics and tabs in a legal way, paying royalties each year to a few organizations. Then, all lyrics and tabs were removed from the site. Now, there's a new owner to the site, which purchased it August 26, 2014, and he is in negotiation to obtain licensing from BMI at the moment. If you have a specific DMCA request -- please do not hesitate to contact me via the contact button on top. I will do my very best to keep this site fully legal.

Get our toolbar!