Your One-Stop Source For
Music Lyrics
Bass and Guitar Tabs
and More...
Music Lyrics Bass and Guitar Tabs

 

The Tabs Are Below

Learn To Read Tab
Chords Handbook
Corrections & Additions
Get Official Tab
3EB tabs @ 911Tabs

Third Eye Blind

"Walk With The Devil"

1999-Demo (not on any cd)

Transcribed by Brian Stofko ("Incubus")

 

This is just one of many really tight songs that Third Eye Blind has.

It has two guitars which come in at different times and sometimes

together throughout the song. This is an unreleased song is you won't

find it on any album, the only place you will find it is most likely

on Napster. This tab should be perfect but just in case-

 

Questions, Comments, Changes, or Suggestions- adidas45h@prodigy.net

 

Tuning- EBGDAD

h- hammer

p- pull-off

x- mute

b- bend

/- slide

 

 

(Intro)

Gtr. 1

E----2------5--0---2-----5--0---2------2----5---5------2-----5--2---

B--3----3-------------3------------------3----3----------3--------3-

G-------------------------------------------------------------------

D--------------0------------0---0-----------------------------------

A-------------------------------------------------------------------

D-------------------------------------------------------------------

 

Gtr. 2

E----------------------------------2---2h3phphph--------------------

B----------------------------------3--------------------------------

G-------------------------------------------------------------------

D-------------------------------------------------------------------

A-------------------------------------------------------------------

D-------------------------------------------------------------------

 

Gtr. 1

E--5-------------------------------------------------2--0--0--0-----

B-----5-3-5-3------3-2---5-2------3-2---5-2------3---3--3--2--0-----

G--------------2-4-----2------2-4-----2------2-4-----2--2--2--2-----

D-------------------------------------------------------------------

A-------------------------------------------------------------------

D-------------------------------------------------------------------

 

 

 

 

(Verse)

Gtr. 1

E-0-0-0-0----0-0----0-0-0-0--0-0----0-0-0-0--0-0---2h3p2-0--0-0-----

B-0-0-0-0----2-2----0-0-0-0--2-2----0-0-0-0--2-2---3-----3--2-0-----

G-2-2-2-2----2-2----2-2-2-2--2-2----2-2-2-2--2-2---2-----2--2-2-----

D-0-0-0-0----0-0----0-0-0-0--0-0----0-0-0-0-------------------------

A-------------------------------------------------------------------

D-------------------------------------------------------------------

 

Gtr. 2

E-------------------------------------------------------------------

B-------------------------------------------------------------------

G-------------------------------------------------------------------

D-5-5-5-5-x--7-7-x--5-5-5-5--7-7-x--5-5-5-5--7-7--x-----------------

A-5-5-5-5-x--7-7-x--5-5-5-5--7-7-x--5-5-5-5--7-7--x-----------------

D-5-5-5-5-x--7-7-x--5-5-5-5--7-7-x--5-5-5-5--7-7--x-----------------

 

 

Gtr. 1 *

E-0-0-0-0----0-0---0-0-0-0--0-0-----0-0-0-0--0-0--------------------

B-0-0-0-0----2-2---0-0-0-0--2-2-----0-0-0-0--2-2--------------------

G-0-0-0-0----2-2---0-0-0-0--2-2-----0-0-0-0--2-2--------------------

D-------------------------------------------------------------------

A-------------------------------------------------------------------

D-------------------------------------------------------------------

 

 

Gtr. 2

E-------------------------------------------------------------------

B-------------------------------------------------------------------

G-------------------------------------------------------------------

D-5-5-5-5-x--7-7-x--5-5-5-5--7-7-x--5-5-5-5--7-7--x-----------------

A-5-5-5-5-x--7-7-x--5-5-5-5--7-7-x--5-5-5-5--7-7--x-----------------

D-5-5-5-5-x--7-7-x--5-5-5-5--7-7-x--5-5-5-5--7-7--x-----------------

 

* repeat without Gtr. 2 several times then go back to the beggining

of the "verse" and play through.

 

Gtr. 1 1st interlude (1:11 on track timer) x2

E--2---5--3----5--0---0---------------------------------------------

B----3-------3------3---3-------3-2---5-2------3-2---5-2------------

G---------------------------2-4-----2------2-4-----2-----2-b4-------

D-------------------------------------------------------------------

A-------------------------------------------------------------------

D-------------------------------------------------------------------

 

Then Gtr. 2 plays a measure of the "verse" alone.

Then Gtr. 1 comes back in and joins to play the "verse" w/ Gtr. 2.

 

 

Gtr. 2 2nd interlude (1:47 on track timer)

E------------|------------------------------|-----------------------

B------------|------(x3.5)------------------|-----------------------

G------------|------------------------------|---Then back to verse--

D-7-7-7-7--5/|3/-5-6/-5--3/-5-6/-5--7-7--7--|-----------------------

A-7-7-7-7--5/|3/-5-6/-5--3/-5-6/-5--7-7--7--|-----------------------

D-7-7-7-7--5/|3/-5-6/-5--3/-5-6/-5--7-7--7--|-----------------------

 

 

Gtr. 1 3rd interlude (2:33 on track timer)

E-2-----------------------------------------------------------------

B-3-------------------------------3--2---2---------3-2---2---5-2----

G-----------------------------2-4------2---2--2--4-----2---2--------

D-------------------------------------------------------------------

A-------------------------------------------------------------------

D-------------------------------------------------------------------

 

Gtr. 2

E--2---5--3----5----------------------------------------------------

B----3------3----/5----5---------3-2---5--2------3-2---5-2------(3)-

G-------------------/7---7--2-4------2-------2-4-----2-----2--4b-----

D-------------------------------------------------------------------

A-------------------------------------------------------------------

D-------------------------------------------------------------------

 

Both Guitars back to "verse" until the end the end of the song.

 

Then end with this:

 

Gtr. 2 (3:19 on track timer)

E-------------------------------------------------------------------

B-------------------------------------------------------------------

G-------------------------------------------------------------------

D--5---5-5----4---4--4------2---------------------------------------

A--5---5-5--0-4---4--4--0---2---------------------------------------

D--5---5-5--0-4---4--4--0---2---------------------------------------

 

 

Return to my to my TEB tabs page

The Tablature is Copyright its respective owners.

Sign Up For My Newsletter
Subscribe | Unsubscribe

Site Map | Disclaimer | Privacy Policy | Media Kit | Submissions/Corrections

Website © 2000-2014 mattsmusicpage.com. All rights reserved.

Legal & DMCA: Matt's Music Page has been providing lyrics and tabs in a legal way, paying royalties each year to a few organizations. Then, all lyrics and tabs were removed from the site. Now, there's a new owner to the site, which purchased it August 26, 2014, and he is in negotiation to obtain licensing from BMI at the moment. If you have a specific DMCA request -- please do not hesitate to contact me via the contact button on top. I will do my very best to keep this site fully legal.

Get our toolbar!