Your One-Stop Source For
Music Lyrics
Bass and Guitar Tabs
and More...
Music Lyrics Bass and Guitar Tabs

 

The Tabs Are Below

Learn To Read Tab
Chords Handbook
Corrections & Additions
Get Official Tab
3EB tabs @ 911Tabs

 

#----------------------------------PLEASE NOTE--------------------------------#

#This file is the author's own work and represents their interpretation of the#

#song. You may only use this file for private study, scholarship, or research.#

#-----------------------------------------------------------------------------#

#-- File created with Instab - http://www.pconline.com/~smcarey/instab.html --#

#-----------------------------------------------------------------------------#

 

Song:Thanks A Lot

Tuning:Standard *for a change*

Guitar 1= Kevin Guitar 2= Stephan

 

 

------------------------------------------------------------------------------

------------------------------------------------------------------------------

----7-------------------------------------------------------------------------

-2--7--9---5------------------------------------------------------------------

-2--5--9---5------------------------------------------------------------------

-0-----7---3------------------------------------------------------------------

Em D Bm G

 

 

 

Intro

Guitar 2 plays power chords over Guitar 1's part

 

Em D B G

-------0---0---0---0------0---0---0---0--|-----0--0---0---0-------------------

-------10--10--10--10-----10--10--10--10-|-----10-10--10--10------------------

-------0---11--0---0------0---11--0---0--|-----0--11--0---0-------------------

-----------------------0-----------------|--------------------5-5-5--5--5-----

-----------------------------------------|-9------------------5-5-5--5--5-----

--0--------------------------------------|-7------------------3-3-3--3--3-----

 

 

Verse

 

Em D B G

------------|-----------|----------------|------------------------------------

-----10-10--|-------7-7-|----------------|------------------------------------

-----11-11--|-------7-7-|----------------|------------------------------------

-----x--x---|-------7-7-|--9--9--9--9----|-5-5-5------------------------------

-----9--9---|--7/9------|--9--9--9--9----|-5-5-5------------------------------

--0---------|-----------|--7--7--7--7----|-3-3-3p0----------------------------

 

Chorus

 

Guitar 1 pinch harm.

----------------------------------|----------------------------|--------------

------------------7--8-7----------|----------------7b8r7---7b8-|--------------

---7---7---7--7---7-------7--7\4--|-4--------------------9-----|--------------

---7---7---7--7---7-------7--7\4--|-4-----5--5--5--------------|-5------------

---5---5---5--5---5----------5\2--|-2--0--5--5--5--------------|--------------

----------------------------------|-------3--3--3--------------|--------------

w/octaver alt. bend

Guitar 2

--5----5---5--5---5---------------|-------------------------------------------

--3----3---3--3---3---------------|-------------------------------------------

----------------------7---7----4--|-4-----------------------------------------

----------------------7---7----4--|-4-----5--5--5-----------------------------

----------------------5---5----2--|-2-----5--5--5-----------------------------

----------------------------------|-------3--3--3-----------------------------

 

 

Solo

 

Em Bm G Em D

-----------10-----------|---------------7|-7-0-7-9-10-----------14------------

-0-0-10b12----10--10\7--|-8-7-7h8r7------|------------10--10/15---------------

------------------------|-----------9-7--|------------------------------------

------------------------|----------------|------------------------------------

------------------------|----------------|------------------------------------

------------------------|----------------|------------------------------------

 

Bm G Em D

-15-14-14h15r14----------------|----------------------------------------------

----------------17-15----------|-----------14-15------------------------------

----------------------16b17r16-|--16-14-16-------14---14\11--11---------------

-------------------------------|----------------------------------------------

-------------------------------|----------------------------------------------

-------------------------------|----------------------------------------------

 

Bm G Em D Bm G

------------------------------------------------------------------------------

-----------------------14-------------------------14b15-vvvvvvvvvv------------

--12--11b12r11----------------------------------------------------------------

---------------14-12----------------------------------------------------------

------------------------------------------------------------------------------

------------------------------------------------------------------------------

feedback on last note

 

Interlude

(Repeat Intro with bass harmonics of D, D, F#, F# vibrato...I've watched Arion play this

part live and it looks like a pinch harmonic on the D string, 4th fret for the F#)

 

 

Bass Solo *arranged for guitar w/ flanger*

e--------------------------------|-----------------

B--------------------------------|-----------------

G--------------------------------|-----------------

D--12-12-x-x-12-12--9--9--5--5-x-|-----------------

A--12-12-x-x-12-12--9--9--5--5-x-|-5h7-7b1/2-7-5---

E--1O-1O-x-x-1O-1O--7--7--3--3-x-|---------------7-

 

Repeat Chorus without vocals...end on D Power Chord

 

 

 

 

 

Return to my to my TEB tabs page

The Tablature is Copyright its respective owners.

Sign Up For My Newsletter
Subscribe | Unsubscribe

Site Map | Disclaimer | Privacy Policy | Media Kit | Submissions/Corrections

Website © 2000-2014 mattsmusicpage.com. All rights reserved.

Legal & DMCA: Matt's Music Page has been providing lyrics and tabs in a legal way, paying royalties each year to a few organizations. Then, all lyrics and tabs were removed from the site. Now, there's a new owner to the site, which purchased it August 26, 2014, and he is in negotiation to obtain licensing from BMI at the moment. If you have a specific DMCA request -- please do not hesitate to contact me via the contact button on top. I will do my very best to keep this site fully legal.

Get our toolbar!

 

Hard Rock Pin Las Vegas 4th of july red white and blue guitar
$5.0
Hard Rock Pin Las Vegas 4th of july red white and blue guitar picture


Hard Rock Pin Hollywood Fl Bell Girl with dice luggage and guitar
$5.0
Hard Rock Pin Hollywood Fl Bell Girl with dice luggage and guitar picture


Hard Rock Pin Las Vegas King of Clubs Guitar rare only 3 lines of info on back
$5.0
Hard Rock Pin Las Vegas King of Clubs Guitar rare only 3 lines of info on back picture


Hard Rock Pin Edmonton guitar pin
$5.0
Hard Rock Pin Edmonton guitar pin picture


Lladro Guitar Boy #4614 - Beautiful Piece of Lladro
$109.0
Lladro Guitar Boy #4614 - Beautiful Piece of Lladro picture