Your One-Stop Source For
Music Lyrics
Bass and Guitar Tabs
and More...
Music Lyrics Bass and Guitar Tabs

 

The Tabs Are Below

Learn To Read Tab
Chords Handbook
Corrections & Additions
Get Official Tab
3EB tabs @ 911Tabs

 

#-----------------------------------------------------------------------------#

#-- File created with Instab - http://www.pconline.com/~smcarey/instab.html --#

#-----------------------------------------------------------------------------#

 

Author/Artist: Third Eye Blind

Title: Narcolepsy

Album: Third Eye Blind

Transcribed by: Aaron

Email: 3ebtab@geocities.com

Tuning:F#ADF#AE

 

Intro/Verse (quiet)

-0----12----0--|-7---7--7-7--7-0|-0-17--0--0--12-|-7-7--7--7---0--------------

-0----0--12-12-|-0---7--7-7--7-0|-0-0---17-17-0--|-7-7--7--7---0--------------

-0--0-0--0--0--|-0---7--7-7--7-0|-0-0------------|-7-7--7--7---0--------------

-0--0----0--0--|-0---7--7-7--7-0|-0--------------|-7-7--7--7---0--------------

-0--0----0-----|-0---0---------0|-0--------------|---0--0------0--------------

-0--0----0-----|-0--------------|----------------|----------------------------

 

Interlude

-00-0-0--0--0--|-7-7--7-7--|-0-0-2-2-0-0-|----0-0-0---2-2-2--0-0-0|-----------------

-0--0-0-----0-0|-7-7--7-7--|-4-4-2-2-0-0-|----4-4-4---2-2-2--0-0-0|-----------------

-0--0-0--0--0-0|-7-7--7-7--|-3-3-2-2-3-3-|----3-3-3---2-2-2--3-3-3|-----------------

-00-0-0--00-0-0|-7-7--7-7--|-2-2-2-2-4-4-|----2-2-2---2-2-2--4-4-4|-----------------

-0--0-0-----0-0|-----------|-0-0---------|----0-0-----------------|-----------------

-0--0-0--00-0--|-----------|-------------|------------------------|-----------------

Ooo ooo... Ooo ooo... try..keep..awake..try to..swim beneath

 

Prechorus (before dist. starts)

----------------------------|-----------|-------|-0---------------------------

----------------------------|-----------|-------|-0---------------------------

----------------------------|9----------|-0-----|-0---------------------------

-7--------------------------|7-x8-------|-0-----|-0---------------------------

-6--------------------------|6----------|-9-----|-9---------------------------

-5--------------------------|5----------|-8--x8-|-8---------------------------

x8 with "i can feel this narcolepsy slide into another nitemare !

 

Verse (loud) Prechorus (loud)

--0-----|-0-7----|------------------------------------------------------------

--0-----|-0-7----|-----------------------------0-0-------------------9-9-7-7--

--0-----|-0-7----|-------------------9-9-7-7-7--------------------------------

--0-----|-0-7----|---------------------------------------------7-7-7----------

--0-----|-0-7----|-------6-6-6-9-9-9---------------------9-9-9----------------

--0-----|-0-7----|-5-5-5---------------------------8-8-8----------------------

x8 x1 x8 I can feel this narcolepsy....

 

Solo

-/12-12/17-17-17-17-17-17\-|-7-7--7-7-9b10r7-|-5/17-17-17-17-17-17-17-|-------

-/12-----------------------|-----------------|------19-19-19-19-19-19-|-------

---------------------------|-----------------|------------------------|-------

---------------------------|-----------------|------------------------|-------

---------------------------|-----------------|------------------------|-------

---------------------------|-----------------|------------------------|-------

 

 

--0-0-7--7--7--7-9b10r9-7-|--5-5/12-14-14-14-14-14-14-14-|-12-7-7-7-7---------

--0-0---------------------|------------------------------|--------------------

--------------------------|------------------------------|--------------------

--------------------------|------------------------------|--------------------

--------------------------|------------------------------|--------------------

--------------------------|------------------------------|--------------------

 

 

-9b10r9-7-|-5-5-5/17-17-17-17-17-17-17-17-------------------------------------

----------|-------------------------------------------------------------------

----------|-------------------------------------------------------------------

----------|-------------------------------------------------------------------

----------|-------------------------------------------------------------------

----------|-------------------------------------------------------------------

 

Outro...repeat intro slower and with Dist...end on 12-12-12-12-12-12 d chord

 

 

Return to my to my TEB tabs page

The Tablature is Copyright its respective owners.

Sign Up For My Newsletter
Subscribe | Unsubscribe

Site Map | Disclaimer | Privacy Policy | Media Kit | Submissions/Corrections

Website © 2000-2014 mattsmusicpage.com. All rights reserved.

Legal & DMCA: Matt's Music Page has been providing lyrics and tabs in a legal way, paying royalties each year to a few organizations. Then, all lyrics and tabs were removed from the site. Now, there's a new owner to the site, which purchased it August 26, 2014, and he is in negotiation to obtain licensing from BMI at the moment. If you have a specific DMCA request -- please do not hesitate to contact me via the contact button on top. I will do my very best to keep this site fully legal.

Get our toolbar!