Your One-Stop Source For
Music Lyrics
Bass and Guitar Tabs
and More...
Music Lyrics Bass and Guitar Tabs

 

The Tabs Are Below

Learn To Read Tab
Chords Handbook
Corrections & Additions
Get Official Tab
3EB tabs @ 911Tabs

 

#----------------------------------PLEASE NOTE--------------------------------#

#This file is the author's own work and represents their interpretation of the#

#song. You may only use this file for private study, scholarship, or research.#

#-----------------------------------------------------------------------------#

#-- File created with Instab - http://www.pconline.com/~smcarey/instab.html --#

#-----------------------------------------------------------------------------#

 

Tuning:F#AC#F#G#E

Song:Losing A Whole Year

 

I learned most of this from watching Kevin with binoculars live, and from

a live performance on the new Launch CD Rom, which I recommend buying, cos

it's sweet...it may not be entirely correct...but its much better than the

crappy standard tuning one.

 

Intro

-------------0----|-------------0-----|------------0-----|-------------0------

---------0h8---8--|---------0h3---3---|--------0h7---10--|---------0h7---10---

-------7---------7|-------2---------2/|9-----9----------9|-------9----------9-

-----8------------|-----3------------/|10-10-------------|----10--------------

---7--------------|---2---------------|------------------|--9-----------------

-7----------------|-2-----------------|------------------|9-------------------

 

Intro/Chorus Verse

-0----0-----0------|-----0------0----------|--------0------0------------------

-8----3-----10-----|-8---8------8----------|--------3------3---------3--------

-7----2-----9------|-7---7------7----------|--------2------2---------2--------

-8----3-----10-----|-8---8------8----------|--------3------3---------3--------

-7----2-----9------|-7---7------7----------|2-------2----------------2--------

-7----2-----9------|-7---7------7---xh8-7-0|2------------------------2--------

x8 x8 x8 Rich daddy..a.. ..voice..money..your...cute

 

-------0------0---------0--|---------0----------------------------------------

-------10-----10--------10-|---------10---------------------------------------

-9-----9------9---------9--|-9-------9----------------------------------------

-10----10-----10--------10-|-10-----------------------------------------------

-9-----9------9------------|-9-----------------------0------------------------

-9-----9------9----7h10----|-9---------------7h10----0------------------------

But..daddy..you.. touch ..thing..velvet..and

 

 

Bridge Solo

-0--0--0--|-0-0-0-|-0-0-0---|------0-----------------|------------------------

-3--3--3--|-3-3-3-|-3-3-3---|--------8---------------|-----3------------------

-0--0--0--|-0-0-0-|-0-0-0---|----------7b8r7---7-----|-------2b3r2---2--------

-3--3--3--|-3-3-3-|-3-3-3---|----8-----------8---8p0-|---3---------3---3p0----

-0--0--0--|-0-0-0-|-0-0-0---|------------------------|------------------------

-3-----3--|-2-2-2-|-3-2-0---|5/7---------------------|-2----------------------

 

 

-----------------------------|------------------------------------------------

------10---------------------|------10----------------------------------------

------------9b10r9----9------|------------9b10r9----9-------------------------

---10----10--------10---10p0-|---10----10--------10---10----------------------

-----------------------------|------------------------------------------------

-9---------------------------|-9----------------------------------------------

Losing a whole year..

 

Outro

-0-----0-----0--0--0----------------------------------------------------------

-15----15----15-15-15---------------------------------------------------------

-0-----0-----0--0--0----------------------------------------------------------

-15----15----15-15-15---------------------------------------------------------

-x-----x-----x--x--x----------------------------------------------------------

-15----14----15-14-12---------------------------------------------------------

x3 x3

 

 

 

 

Return to my to my TEB tabs page

The Tablature is Copyright its respective owners.

Sign Up For My Newsletter
Subscribe | Unsubscribe

Site Map | Disclaimer | Privacy Policy | Media Kit | Submissions/Corrections

Website © 2000-2014 mattsmusicpage.com. All rights reserved.

Legal & DMCA: Matt's Music Page has been providing lyrics and tabs in a legal way, paying royalties each year to a few organizations. Then, all lyrics and tabs were removed from the site. Now, there's a new owner to the site, which purchased it August 26, 2014, and he is in negotiation to obtain licensing from BMI at the moment. If you have a specific DMCA request -- please do not hesitate to contact me via the contact button on top. I will do my very best to keep this site fully legal.

Get our toolbar!