Your One-Stop Source For
Music Lyrics
Bass and Guitar Tabs
and More...
Music Lyrics Bass and Guitar Tabs

 

The Tabs Are Below

Learn To Read Tab
Chords Handbook
Corrections & Additions
Get Official Tab
3EB tabs @ 911Tabs

 

Tuning:Open D *DADF#AD*

 

Intro

-------------------------------------------------------------------------

------------------------------------------------12b14----------------------

----8b9-----------10b11-----------8b------------------------------------

-9------7-7-9/12--------7-7--7/9-------7-7--9/12------5\4-2-4-------------

-9------7-7-9/12--------7-7--7/9-------7-7--9/12------5\4-2-4-------------

-9------7-7-9/12--------7-7--7/9-------7-7--9/12------5\4-2-4-------------

 

Played Throughout....

-------------------------------------------------------------------------

-------------------------------------------------------------------------

----8b-----------10b---------------8b------------10b---------------------

-9-----7-7-9/12--------7-7--7/9-------7-7--9/12------5\4-2-4-------------

-9-----7-7-9/12--------7-7--7/9-------7-7--9/12------5\4-2-4-------------

-9-----7-7-9/12--------7-7--7/9-------7-7--9/12------5\4-2-4-------------

 

 

Verse

-------------------------------------------------------------------------

-------------------------------------------------------------------------

-------------------------------------------------------------------------

-9--9---7-7-7--9/12--12---7-7-7--7/9--9---7-7-7---9/12--12---5\4-2-4-----

9--9---7-7-7--9/12--12---7-7-7--7/9--9---7-7-7---9/12--12---5\4-2-4-----

-9--9---7-7-7--9/12--12---7-7-7--7/9--9---7-7-7---9/12--12---5\4-2-4-----

 

Prechorus

-0---|-------------------0-|-0------------------------|---0-------------------

-0---|-------------------0-|-0------------------------|---0---x-x--xx--x------

-x---|-------------------x-|-x------------------------|---x---x-x--x---x------

-7---|---7---5---7---5---7-|-9------------------------|---7---x-x--x---x------

-7---|---5---5---5---5---5-|-9------------------------|---7---x-x--x---x------

-7---|---5---5---5---5---5-|-9------------------------|---7---x----x---x------

x4......face has changed... x4 we're no good for each other

 

repeat over "you tricked me into coming here..so let go"

 

Chorus

 

--10-------------------|-0----------10---------------|-5----------------------

--10-------------------|-0----------10---------------|-5----------------------

--12-------------------|-12---------12---------------|-5----------------------

--10-------------------|-0----------10---------------|-5----------------------

--10-------------------|-x----------10---------------|-5----------------------

--10-------------------|-12---------10---------------|-5----------------------

x8 dont wanna go to london (x8) (x8) dont....london..

 

------|-5---5-5-5---5---5-----------------------------------------------------

------|-5---5-5-5---5---5-----------------------------------------------------

------|-5---5-5-5---5---5-----------------------------------------------------

------|-5---5-5-5---5---5-----------------------------------------------------

------|-5---5-5-5---5---5-----------------------------------------------------

------|-5---5-5-5---5---5-----------------------------------------------------

then SHES ADDICTED !

 

B C D D#

----------------|----------------|-----------------|--------------------------

----------------|----------------|-----------------|--------------------------

----------------|----------------|-----------------|--------------------------

--9--9---9---9--|-10--10--10--10-|--12--12--12--12-|-13--13--13--13-----------

--9--9---9---9--|-10--10--10--10-|--12--12--12--12-|-13--13--13--13-----------

--9--9---9---9--|-10--10--10--10-|--12--12--12--12-|-13--13--13--13-----------

play twice then this comes in

 

-5--4--2--------|-5-p4-----------|-----------------|--------------------------

----------------|---------5------|-----------------|--------------------------

----------------|----------------|-----------------|--------------------------

----------------|----------------|-7---------------|-7b8----------------------

----------------|----------------|-----------------|--------------------------

----------------|----------------|-----------------|--------------------------

let ring.. let ring repeat once then chorus,

then intro..end on feed

back *note is open 4th string D*

 

 

 

 

Return to my to my TEB tabs page

The Tablature is Copyright its respective owners.

Sign Up For My Newsletter
Subscribe | Unsubscribe

Site Map | Disclaimer | Privacy Policy | Media Kit | Submissions/Corrections

Website © 2000-2014 mattsmusicpage.com. All rights reserved.

Legal & DMCA: Matt's Music Page has been providing lyrics and tabs in a legal way, paying royalties each year to a few organizations. Then, all lyrics and tabs were removed from the site. Now, there's a new owner to the site, which purchased it August 26, 2014, and he is in negotiation to obtain licensing from BMI at the moment. If you have a specific DMCA request -- please do not hesitate to contact me via the contact button on top. I will do my very best to keep this site fully legal.

Get our toolbar!

 

VINTAGE SORRENTO MUSIC JEWELRY BOX
$45.0
VINTAGE SORRENTO MUSIC JEWELRY BOX picture


VINTAGE LACQUERED MUSIC BOX JAPAN
$25.99
VINTAGE LACQUERED MUSIC BOX JAPAN picture


Vintage Kehlsteinhaus Bavaria Germany Colorscope Cow Bell View Master Music Box
$8.99
Vintage Kehlsteinhaus Bavaria Germany Colorscope Cow Bell View Master Music Box picture


VINTAGE SCHMIDT Signed Collectible Musical Turning Clown
$9.99
VINTAGE  SCHMIDT Signed Collectible Musical Turning Clown picture


Vintage - Linen - Postcard - Stage - Radio City Music Hall - New York City
$3.75
Vintage - Linen - Postcard - Stage - Radio City Music Hall - New York City   picture