Your One-Stop Source For
Music Lyrics
Bass and Guitar Tabs
and More...
Music Lyrics Bass and Guitar Tabs

 

The Tabs Are Below

Learn To Read Tab
Chords Handbook
Corrections & Additions
Get Official Tab
3EB tabs @ 911Tabs

 

Jumper

Words and Music by Stephan Jenkins

Tabbed by NAHAHLEM18@aol.com

 

E|--0--0---0--0--0--0---3---3--3--3--3--3---|| This is the main guitar

B|--1--1---1--1--1--1---0---0--0--0--0--0---|| part just basically

G|--2--2---0--0--0--0---0---0--0--0--0--0---|| played over and over.

D|--3--3---2--2--2--2---0---0--0--0--0--0---|| He pauses everyonce in

A|--0--0---3--3--3--3---2---2--2--2--2--2---|| in awhile so just

E|--x--x---x--x--x--x---3---3--3--3--3--3---|| listen to the song to

Fmaj7 C G figure it out.

 

E|---------------------------------------13--12--13---12--13--12-------

B|--13--12--13---12--13--12--13--15-------------------------------12---

G|-----------------------------------12--------------------------------

D|---------------------------------------------------------------------

A|---------------------------------------------------------------------

E|---------------------------------------------------------------------

 

E|-----------|| That's the solo that comes somewhere in the middle of

B|--13--15---|| the song when everything quiets down. You play it

G|-----------|| through twice. the way I play it is by covering the

D|-----------|| first 3 strings at the 12th fret. then you don't have

A|-----------|| to worry about hitting those notes. There may be other

E|-----------|| parts to this song that aren't tabbed here.

 

If you have any requests, Questions, Comments or complaints

E-mail them to NAHALEM18@ aol.com. This tab is very accurate because

I have the book of music to the CD. For requests I can tab any song

from ther CD. Oh yeah, this page should print out well and not be

screwed up when you print it.

 

 

 

 

 

Return to my to my TEB tabs page

The Tablature is Copyright its respective owners.

Sign Up For My Newsletter
Subscribe | Unsubscribe

Site Map | Disclaimer | Privacy Policy | Media Kit | Submissions/Corrections

Website © 2000-2014 mattsmusicpage.com. All rights reserved.

Legal & DMCA: Matt's Music Page has been providing lyrics and tabs in a legal way, paying royalties each year to a few organizations. Then, all lyrics and tabs were removed from the site. Now, there's a new owner to the site, which purchased it August 26, 2014, and he is in negotiation to obtain licensing from BMI at the moment. If you have a specific DMCA request -- please do not hesitate to contact me via the contact button on top. I will do my very best to keep this site fully legal.

Get our toolbar!

 

Hard Rock Pin Las Vegas 4th of july red white and blue guitar
$5.0
Hard Rock Pin Las Vegas 4th of july red white and blue guitar picture


Hard Rock Pin Hollywood Fl Bell Girl with dice luggage and guitar
$5.0
Hard Rock Pin Hollywood Fl Bell Girl with dice luggage and guitar picture


Hard Rock Pin Las Vegas King of Clubs Guitar rare only 3 lines of info on back
$5.0
Hard Rock Pin Las Vegas King of Clubs Guitar rare only 3 lines of info on back picture


Hard Rock Pin Edmonton guitar pin
$5.0
Hard Rock Pin Edmonton guitar pin picture


Lladro Guitar Boy #4614 - Beautiful Piece of Lladro
$109.0
Lladro Guitar Boy #4614 - Beautiful Piece of Lladro picture