Your One-Stop Source For
Music Lyrics
Bass and Guitar Tabs
and More...
Music Lyrics Bass and Guitar Tabs

 

The Tabs Are Below

Learn To Read Tab
Chords Handbook
Corrections & Additions
Get Official Tab
3EB tabs @ 911Tabs

 

#----------------------------------PLEASE NOTE--------------------------------#

#This file is the author's own work and represents their interpretation of the#

#song. You may only use this file for private study, scholarship, or research.#

#-----------------------------------------------------------------------------#

#-- File created with Instab - http://www.pconline.com/~smcarey/instab.html --#

#-----------------------------------------------------------------------------#

Song:I Want You

Band: 3eb

Album: Third Eye Blind

Tabbed by: Aaron (3ebtab@3eb.net)

 

All notes are listed but when fills are used and stuff like that is pretty

easy to hear if you just listen to the song, so I didn't do a complete song

order.

 

Intro

------------------------------------------------------------------------------

------------------------------------------------------------------------------

---8b9r8--8b9-8\\6\\--(w/ delay)----------------------------------------------

------------------------------------------------------------------------------

------------------------------------------------------------------------------

------------------------------------------------------------------------------

G / / Am / / / / C / / / / Am / / / /

 

Play verse chords:G, Am (Am7/Asus2 variations), C(Cmaj7 var.), Am

 

delay off

--------------------------------------------------------------------0---------

----------------------------------------------------------------------3---0---

--0---0b1---------------------------------------------------------------2-----

------------------------------------------------------------------------------

------------------------------------------------------------------------------

------------------------------------------------------------------------------

People always take a step away from what is...thats why i like you around

I want you

 

Cont. Verse/Chorus chords then

 

"I cant get enough" chords- Em, G, Am

 

w/ weird dist. Verse (guitar 2 pick Am chord with phase shift)

--0---3---5---3/5--5/7----3--|------------------------3/5--|------------------

-----------------------------|------------------------3/5--|------------------

-----------------------------|-----------------------------|------------------

-----------------------------|-----------------------------|------------------

-----------------------------|-----------------------------|------------------

--0---3---5---3/5--5/7----3--|-----------------------------|------------------

(and i cant get enough) open invitation to the dance I want you....

 

Chorus

----------------------|-0----3--5-3/5--5/7--3--|------------------------------

----------------------|------------------------|------------------------------

-0h2r0-----0h2r0--2-0-|----w/weird dist--------|------------------------------

--------4-------------|------------------------|------------------------------

----------------------|------------------------|------------------------------

----------------------|-0----7--5-3/5--5/7--3--|------------------------------

(and i cant get enough) You, you, you..etc

Interlude

w/ flanger

----3----0-----0------|-0--------------|--------------------------------------

--3---1--------1--0-1-|-0h1-----0------|--------------------------------------

------------2---------|------2----2----|--0-----------------------------------

----------------------|----------------|--------------------------------------

----------------------|----------------|--------------------------------------

----------------------|----------------|--------------------------------------

 

Verse then bridge then

 

Interlude/Breakdown

--3--3----------------|---------------------|---------------------------------

--3--3--------1-------|----------------1----|---------------------------------

--0--0----------2-----|-------0----------2--|---------------------------------

--0--0---0h2----------|---------2--0h2------|---------------------------------

--x--x----------------|--0h3----------------|---------------------------------

--3--3----------------|---------------------|---------------------------------

palm mute repeat

 

Verse until

(w/ wah)

------------------------------------------------------------------------------

---------3-------------------2-----------------0----------------------0-------

------------------------------------------------------------------------------

------------------------------------------------------------------------------

------------------------------------------------------------------------------

------------------------------------------------------------------------------

presently in the quilt that your mother made a big candle burns to fight

 

------------------------------------------------------------------------------

-1-------------------3-----------------------------------0--------1-----------

------------------------------------------------------------------------------

------------------------------------------------------------------------------

------------------------------------------------------------------------------

------------------------------------------------------------------------------

off the gloom, to live this way is not for the meek....jazz dj...me into..

 

------------------------------------------------------------------------------

--3----------------------2--------------0/7-----------------------------------

------------------------------------------------------------------------------

------------------------------------------------------------------------------

------------------------------------------------------------------------------

------------------------------------------------------------------------------

be no regrets when the worms come and they will surely come..

 

Chorus then "send me all your vampires..."

-----------------------------0--------|---------------------------------------

-------------------------------3------|---------------------------------------

---------------------------------0----|-4h5p4h5p4h5p4h5p4-2h4-2h4-2p0-4p0-2-0-

-----------------------------------2--|---------------------------------------

--------------------------------------|---------------------------------------

--------------------------------------|---------------------------------------

send me all your vampires.. send me all your vampires..

 

------------------------------------------------------------------------------

------------------------------------------------------------------------------

---------------/12-/12--------------------------------------------------------

------------------------------------------------------------------------------

------------------------------------------------------------------------------

------------------------------------------------------------------------------

worms come..

 

 

 

 

Return to my to my TEB tabs page

The Tablature is Copyright its respective owners.

Sign Up For My Newsletter
Subscribe | Unsubscribe

Site Map | Disclaimer | Privacy Policy | Media Kit | Submissions/Corrections

Website © 2000-2014 mattsmusicpage.com. All rights reserved.

Legal & DMCA: Matt's Music Page has been providing lyrics and tabs in a legal way, paying royalties each year to a few organizations. Then, all lyrics and tabs were removed from the site. Now, there's a new owner to the site, which purchased it August 26, 2014, and he is in negotiation to obtain licensing from BMI at the moment. If you have a specific DMCA request -- please do not hesitate to contact me via the contact button on top. I will do my very best to keep this site fully legal.

Get our toolbar!